  0
SECTION
  2
HEADER
  9
$ACADVER
  1
AC1024
  9
$ACADMAINTVER
 70
     6
  9
$DWGCODEPAGE
  3
ANSI_1252
  9
$INSBASE
 10
0.0
 20
0.0
 30
0.0
  9
$EXTMIN
 10
24.65336513743023
 20
134.3235533712545
 30
0.0
  9
$EXTMAX
 10
1024.65336513743
 20
1034.323553371255
 30
0.0
  9
$LIMMIN
 10
0.0
 20
0.0
  9
$LIMMAX
 10
594.0
 20
420.0
  9
$ORTHOMODE
 70
     0
  9
$REGENMODE
 70
     1
  9
$FILLMODE
 70
     1
  9
$QTEXTMODE
 70
     0
  9
$MIRRTEXT
 70
     1
  9
$LTSCALE
 40
1.0
  9
$ATTMODE
 70
     1
  9
$TEXTSIZE
 40
3.5
  9
$TRACEWID
 40
1.0
  9
$TEXTSTYLE
  7
Standard
  9
$CLAYER
  8
0
  9
$CELTYPE
  6
ByLayer
  9
$CECOLOR
 62
   256
  9
$CELTSCALE
 40
1.0
  9
$DISPSILH
 70
     0
  9
$DIMSCALE
 40
1.0
  9
$DIMASZ
 40
3.302
  9
$DIMEXO
 40
1.0
  9
$DIMDLI
 40
3.75
  9
$DIMRND
 40
0.0
  9
$DIMDLE
 40
0.0
  9
$DIMEXE
 40
1.0
  9
$DIMTP
 40
0.0
  9
$DIMTM
 40
0.0
  9
$DIMTXT
 40
3.5
  9
$DIMCEN
 40
2.5
  9
$DIMTSZ
 40
0.0
  9
$DIMTOL
 70
     0
  9
$DIMLIM
 70
     0
  9
$DIMTIH
 70
     1
  9
$DIMTOH
 70
     1
  9
$DIMSE1
 70
     0
  9
$DIMSE2
 70
     0
  9
$DIMTAD
 70
     1
  9
$DIMZIN
 70
     0
  9
$DIMBLK
  1

  9
$DIMASO
 70
     1
  9
$DIMSHO
 70
     1
  9
$DIMPOST
  1

  9
$DIMAPOST
  1

  9
$DIMALT
 70
     0
  9
$DIMALTD
 70
     3
  9
$DIMALTF
 40
0.0393700787401575
  9
$DIMLFAC
 40
5.0
  9
$DIMTOFL
 70
     1
  9
$DIMTVP
 40
0.0
  9
$DIMTIX
 70
     0
  9
$DIMSOXD
 70
     0
  9
$DIMSAH
 70
     0
  9
$DIMBLK1
  1

  9
$DIMBLK2
  1

  9
$DIMSTYLE
  2
ISO-25
  9
$DIMCLRD
 70
     0
  9
$DIMCLRE
 70
     0
  9
$DIMCLRT
 70
     0
  9
$DIMTFAC
 40
1.0
  9
$DIMGAP
 40
1.524
  9
$DIMJUST
 70
     0
  9
$DIMSD1
 70
     0
  9
$DIMSD2
 70
     0
  9
$DIMTOLJ
 70
     0
  9
$DIMTZIN
 70
     0
  9
$DIMALTZ
 70
     0
  9
$DIMALTTZ
 70
     0
  9
$DIMUPT
 70
     0
  9
$DIMDEC
 70
     2
  9
$DIMTDEC
 70
     2
  9
$DIMALTU
 70
     2
  9
$DIMALTTD
 70
     3
  9
$DIMTXSTY
  7
Standard
  9
$DIMAUNIT
 70
     0
  9
$DIMADEC
 70
     2
  9
$DIMALTRND
 40
0.0
  9
$DIMAZIN
 70
     0
  9
$DIMDSEP
 70
    44
  9
$DIMATFIT
 70
     3
  9
$DIMFRAC
 70
     0
  9
$DIMLDRBLK
  1

  9
$DIMLUNIT
 70
     2
  9
$DIMLWD
 70
    -2
  9
$DIMLWE
 70
    -2
  9
$DIMTMOVE
 70
     0
  9
$DIMFXL
 40
1.0
  9
$DIMFXLON
 70
     0
  9
$DIMJOGANG
 40
0.7853981633974483
  9
$DIMTFILL
 70
     0
  9
$DIMTFILLCLR
 70
     0
  9
$DIMARCSYM
 70
     0
  9
$DIMLTYPE
  6

  9
$DIMLTEX1
  6

  9
$DIMLTEX2
  6

  9
$DIMTXTDIRECTION
 70
     0
  9
$LUNITS
 70
     2
  9
$LUPREC
 70
     2
  9
$SKETCHINC
 40
1.0
  9
$FILLETRAD
 40
10.0
  9
$AUNITS
 70
     0
  9
$AUPREC
 70
     2
  9
$MENU
  1
.
  9
$ELEVATION
 40
0.0
  9
$PELEVATION
 40
0.0
  9
$THICKNESS
 40
0.0
  9
$LIMCHECK
 70
     0
  9
$CHAMFERA
 40
0.0
  9
$CHAMFERB
 40
0.0
  9
$CHAMFERC
 40
0.0
  9
$CHAMFERD
 40
0.0
  9
$SKPOLY
 70
     0
  9
$TDCREATE
 40
2456914.020659074
  9
$TDUCREATE
 40
2456913.978992419
  9
$TDUPDATE
 40
2456923.844444433
  9
$TDUUPDATE
 40
2456923.802777778
  9
$TDINDWG
 40
0.0000000116
  9
$TDUSRTIMER
 40
2456923.790914352
  9
$USRTIMER
 70
     1
  9
$ANGBASE
 50
0.0
  9
$ANGDIR
 70
     0
  9
$PDMODE
 70
     0
  9
$PDSIZE
 40
-1.0
  9
$PLINEWID
 40
0.0
  9
$SPLFRAME
 70
     0
  9
$SPLINETYPE
 70
     6
  9
$SPLINESEGS
 70
     8
  9
$HANDSEED
  5
1A45
  9
$SURFTAB1
 70
     6
  9
$SURFTAB2
 70
     6
  9
$SURFTYPE
 70
     6
  9
$SURFU
 70
     6
  9
$SURFV
 70
     6
  9
$UCSBASE
  2

  9
$UCSNAME
  2

  9
$UCSORG
 10
0.0
 20
0.0
 30
0.0
  9
$UCSXDIR
 10
1.0
 20
0.0
 30
0.0
  9
$UCSYDIR
 10
0.0
 20
1.0
 30
0.0
  9
$UCSORTHOREF
  2

  9
$UCSORTHOVIEW
 70
     0
  9
$UCSORGTOP
 10
0.0
 20
0.0
 30
0.0
  9
$UCSORGBOTTOM
 10
0.0
 20
0.0
 30
0.0
  9
$UCSORGLEFT
 10
0.0
 20
0.0
 30
0.0
  9
$UCSORGRIGHT
 10
0.0
 20
0.0
 30
0.0
  9
$UCSORGFRONT
 10
0.0
 20
0.0
 30
0.0
  9
$UCSORGBACK
 10
0.0
 20
0.0
 30
0.0
  9
$PUCSBASE
  2

  9
$PUCSNAME
  2

  9
$PUCSORG
 10
0.0
 20
0.0
 30
0.0
  9
$PUCSXDIR
 10
1.0
 20
0.0
 30
0.0
  9
$PUCSYDIR
 10
0.0
 20
1.0
 30
0.0
  9
$PUCSORTHOREF
  2

  9
$PUCSORTHOVIEW
 70
     0
  9
$PUCSORGTOP
 10
0.0
 20
0.0
 30
0.0
  9
$PUCSORGBOTTOM
 10
0.0
 20
0.0
 30
0.0
  9
$PUCSORGLEFT
 10
0.0
 20
0.0
 30
0.0
  9
$PUCSORGRIGHT
 10
0.0
 20
0.0
 30
0.0
  9
$PUCSORGFRONT
 10
0.0
 20
0.0
 30
0.0
  9
$PUCSORGBACK
 10
0.0
 20
0.0
 30
0.0
  9
$USERI1
 70
     0
  9
$USERI2
 70
     0
  9
$USERI3
 70
     0
  9
$USERI4
 70
     0
  9
$USERI5
 70
     0
  9
$USERR1
 40
0.0
  9
$USERR2
 40
0.0
  9
$USERR3
 40
0.0
  9
$USERR4
 40
0.0
  9
$USERR5
 40
0.0
  9
$WORLDVIEW
 70
     1
  9
$SHADEDGE
 70
     3
  9
$SHADEDIF
 70
    70
  9
$TILEMODE
 70
     1
  9
$MAXACTVP
 70
    64
  9
$PINSBASE
 10
0.0
 20
0.0
 30
0.0
  9
$PLIMCHECK
 70
     0
  9
$PEXTMIN
 10
1.000000000000000E+20
 20
1.000000000000000E+20
 30
1.000000000000000E+20
  9
$PEXTMAX
 10
-1.000000000000000E+20
 20
-1.000000000000000E+20
 30
-1.000000000000000E+20
  9
$PLIMMIN
 10
0.0
 20
0.0
  9
$PLIMMAX
 10
0.0
 20
0.0
  9
$UNITMODE
 70
     0
  9
$VISRETAIN
 70
     1
  9
$PLINEGEN
 70
     0
  9
$PSLTSCALE
 70
     1
  9
$TREEDEPTH
 70
  3020
  9
$CMLSTYLE
  2
Standard
  9
$CMLJUST
 70
     0
  9
$CMLSCALE
 40
20.0
  9
$PROXYGRAPHICS
 70
     1
  9
$MEASUREMENT
 70
     1
  9
$CELWEIGHT
370
    -1
  9
$ENDCAPS
280
     0
  9
$JOINSTYLE
280
     0
  9
$LWDISPLAY
290
     1
  9
$INSUNITS
 70
     4
  9
$HYPERLINKBASE
  1

  9
$STYLESHEET
  1

  9
$XEDIT
290
     1
  9
$CEPSNTYPE
380
     0
  9
$PSTYLEMODE
290
     1
  9
$FINGERPRINTGUID
  2
{D6511CED-C2F2-43BE-B58B-D1EBF95CAAA8}
  9
$VERSIONGUID
  2
{FAEB1C32-E019-11D5-929B-00C0DF256EC4}
  9
$EXTNAMES
290
     1
  9
$PSVPSCALE
 40
0.0
  9
$OLESTARTUP
290
     0
  9
$SORTENTS
280
   127
  9
$INDEXCTL
280
     0
  9
$HIDETEXT
280
     1
  9
$XCLIPFRAME
280
     2
  9
$HALOGAP
280
     0
  9
$OBSCOLOR
 70
   257
  9
$OBSLTYPE
280
     0
  9
$INTERSECTIONDISPLAY
280
     0
  9
$INTERSECTIONCOLOR
 70
   257
  9
$DIMASSOC
280
     2
  9
$PROJECTNAME
  1

  9
$CAMERADISPLAY
290
     0
  9
$LENSLENGTH
 40
50.0
  9
$CAMERAHEIGHT
 40
0.0
  9
$STEPSPERSEC
 40
2.0
  9
$STEPSIZE
 40
6.0
  9
$3DDWFPREC
 40
2.0
  9
$PSOLWIDTH
 40
0.25
  9
$PSOLHEIGHT
 40
4.0
  9
$LOFTANG1
 40
1.570796326794897
  9
$LOFTANG2
 40
1.570796326794897
  9
$LOFTMAG1
 40
0.0
  9
$LOFTMAG2
 40
0.0
  9
$LOFTPARAM
 70
     7
  9
$LOFTNORMALS
280
     1
  9
$LATITUDE
 40
37.795
  9
$LONGITUDE
 40
-122.394
  9
$NORTHDIRECTION
 40
0.0
  9
$TIMEZONE
 70
 -8000
  9
$LIGHTGLYPHDISPLAY
280
     1
  9
$TILEMODELIGHTSYNCH
280
     1
  9
$SOLIDHIST
280
     1
  9
$SHOWHIST
280
     1
  9
$DWFFRAME
280
     2
  9
$DGNFRAME
280
     2
  9
$REALWORLDSCALE
290
     1
  9
$INTERFERECOLOR
 62
   256
  9
$CSHADOW
280
     0
  9
$SHADOWPLANELOCATION
 40
0.0
  0
ENDSEC
  0
SECTION
  2
CLASSES
  0
CLASS
  1
ACDBDICTIONARYWDFLT
  2
AcDbDictionaryWithDefault
  3
ObjectDBX Classes
 90
        0
 91
        4
280
     0
281
     0
  0
CLASS
  1
VISUALSTYLE
  2
AcDbVisualStyle
  3
ObjectDBX Classes
 90
     4095
 91
        4
280
     0
281
     0
  0
CLASS
  1
MATERIAL
  2
AcDbMaterial
  3
ObjectDBX Classes
 90
     1153
 91
        4
280
     0
281
     0
  0
CLASS
  1
SCALE
  2
AcDbScale
  3
ObjectDBX Classes
 90
     1153
 91
        4
280
     0
281
     0
  0
CLASS
  1
SUN
  2
AcDbSun
  3
SCENEOE
 90
     1153
 91
        4
280
     0
281
     0
  0
CLASS
  1
ACDBPLACEHOLDER
  2
AcDbPlaceHolder
  3
ObjectDBX Classes
 90
        0
 91
        1
280
     0
281
     0
  0
CLASS
  1
LAYOUT
  2
AcDbLayout
  3
ObjectDBX Classes
 90
        0
 91
        1
280
     0
281
     0
  0
CLASS
  1
TABLESTYLE
  2
AcDbTableStyle
  3
ObjectDBX Classes
 90
     4095
 91
        4
280
     0
281
     0
  0
CLASS
  1
RASTERVARIABLES
  2
AcDbRasterVariables
  3
ISM
 90
        0
 91
        4
280
     0
281
     0
  0
CLASS
  1
DIMASSOC
  2
AcDbDimAssoc
  3
"AcDbDimAssoc|Product Desc:     AcDim ARX App For Dimension|Company:          Autodesk, Inc.|WEB Address:      www.autodesk.com"
 90
        0
 91
        4
280
     0
281
     0
  0
CLASS
  1
DICTIONARYVAR
  2
AcDbDictionaryVar
  3
ObjectDBX Classes
 90
        0
 91
        4
280
     0
281
     0
  0
CLASS
  1
CELLSTYLEMAP
  2
AcDbCellStyleMap
  3
ObjectDBX Classes
 90
     1152
 91
        4
280
     0
281
     0
  0
ENDSEC
  0
SECTION
  2
TABLES
  0
TABLE
  2
VPORT
  5
8
330
0
100
AcDbSymbolTable
 70
     1
  0
VPORT
  5
29
330
8
100
AcDbSymbolTableRecord
100
AcDbViewportTableRecord
  2
*Active
 70
     0
 10
0.0
 20
0.0
 11
1.0
 21
1.0
 12
524.6533651374302
 22
584.3235533712545
 13
0.0
 23
0.0
 14
10.0
 24
10.0
 15
10.0
 25
10.0
 16
0.0
 26
0.0
 36
1.0
 17
0.0
 27
0.0
 37
0.0
 40
918.0
 41
1.972620599739244
 42
50.0
 43
0.0
 44
0.0
 50
0.0
 51
0.0
 71
    16
 72
  2000
 73
     1
 74
     3
 75
     0
 76
     0
 77
     0
 78
     0
281
     0
 65
     1
110
0.0
120
0.0
130
0.0
111
1.0
121
0.0
131
0.0
112
0.0
122
1.0
132
0.0
 79
     0
146
0.0
348
167
 60
     3
 61
     5
292
     1
282
     1
141
0.0
142
0.0
 63
   256
361
182
  0
ENDTAB
  0
TABLE
  2
LTYPE
  5
5
330
0
100
AcDbSymbolTable
 70
     6
  0
LTYPE
  5
14
330
5
100
AcDbSymbolTableRecord
100
AcDbLinetypeTableRecord
  2
ByBlock
 70
     0
  3

 72
    65
 73
     0
 40
0.0
  0
LTYPE
  5
15
330
5
100
AcDbSymbolTableRecord
100
AcDbLinetypeTableRecord
  2
ByLayer
 70
     0
  3

 72
    65
 73
     0
 40
0.0
  0
LTYPE
  5
16
330
5
100
AcDbSymbolTableRecord
100
AcDbLinetypeTableRecord
  2
Continuous
 70
     0
  3
Solid line
 72
    65
 73
     0
 40
0.0
  0
LTYPE
  5
6A
330
5
100
AcDbSymbolTableRecord
100
AcDbLinetypeTableRecord
  2
HIDDEN
 70
     0
  3
Hidden __ __ __ __ __ __ __ __ __ __ __ __ __ __
 72
    65
 73
     2
 40
1.905
 49
1.27
 74
     0
 49
-0.635
 74
     0
  0
LTYPE
  5
6B
330
5
100
AcDbSymbolTableRecord
100
AcDbLinetypeTableRecord
  2
PHANTOM
 70
     0
  3
Phantom ______  __  __  ______  __  __  ______
 72
    65
 73
     6
 40
12.7
 49
6.35
 74
     0
 49
-1.27
 74
     0
 49
1.27
 74
     0
 49
-1.27
 74
     0
 49
1.27
 74
     0
 49
-1.27
 74
     0
  0
LTYPE
  5
6C
330
5
100
AcDbSymbolTableRecord
100
AcDbLinetypeTableRecord
  2
CENTER
 70
     0
  3
Center ____ _ ____ _ ____ _ ____ _ ____ _ ____
 72
    65
 73
     4
 40
10.16
 49
6.35
 74
     0
 49
-1.27
 74
     0
 49
1.27
 74
     0
 49
-1.27
 74
     0
  0
LTYPE
  5
6D
330
5
100
AcDbSymbolTableRecord
100
AcDbLinetypeTableRecord
  2
CENTERX2
 70
     0
  3
Center (2x) ________  __  ________  __  _____
 72
    65
 73
     4
 40
20.32
 49
12.7
 74
     0
 49
-2.54
 74
     0
 49
2.54
 74
     0
 49
-2.54
 74
     0
  0
LTYPE
  5
6E
330
5
100
AcDbSymbolTableRecord
100
AcDbLinetypeTableRecord
  2
DOT2
 70
     0
  3
Dot (.5x) ........................................
 72
    65
 73
     2
 40
0.635
 49
0.0
 74
     0
 49
-0.635
 74
     0
  0
ENDTAB
  0
TABLE
  2
LAYER
  5
2
330
0
100
AcDbSymbolTable
 70
     3
  0
LAYER
  5
10
330
2
100
AcDbSymbolTableRecord
100
AcDbLayerTableRecord
  2
0
 70
     0
 62
     7
  6
Continuous
370
    -3
390
F
347
17E
  0
LAYER
  5
6F
330
2
100
AcDbSymbolTableRecord
100
AcDbLayerTableRecord
  2
FORMAT
 70
     0
 62
     7
  6
Continuous
370
    -3
390
F
347
17E
  0
LAYER
  5
188
330
2
100
AcDbSymbolTableRecord
100
AcDbLayerTableRecord
  2
Defpoints
 70
     0
 62
     7
  6
Continuous
290
     0
370
    -3
390
F
347
17E
  0
ENDTAB
  0
TABLE
  2
STYLE
  5
3
330
0
100
AcDbSymbolTable
 70
     3
  0
STYLE
  5
11
330
3
100
AcDbSymbolTableRecord
100
AcDbTextStyleTableRecord
  2
Standard
 70
     0
 40
0.0
 41
1.0
 50
0.0
 71
     0
 42
3.5
  3
txt
  4

  0
STYLE
  5
91
330
3
100
AcDbSymbolTableRecord
100
AcDbTextStyleTableRecord
  2
SLDTEXTSTYLE0
 70
     0
 40
0.0
 41
0.75
 50
0.0
 71
     0
 42
3.5
  3
TXT
  4

  0
STYLE
  5
98
330
3
100
AcDbSymbolTableRecord
100
AcDbTextStyleTableRecord
  2
SLDTEXTSTYLE1
 70
     0
 40
0.0
 41
0.6923076923076923
 50
0.0
 71
     0
 42
3.5
  3
TXT
  4

  0
ENDTAB
  0
TABLE
  2
VIEW
  5
6
330
0
100
AcDbSymbolTable
 70
     0
  0
ENDTAB
  0
TABLE
  2
UCS
  5
7
330
0
100
AcDbSymbolTable
 70
     0
  0
ENDTAB
  0
TABLE
  2
APPID
  5
9
330
0
100
AcDbSymbolTable
 70
     2
  0
APPID
  5
12
330
9
100
AcDbSymbolTableRecord
100
AcDbRegAppTableRecord
  2
ACAD
 70
     0
  0
APPID
  5
199
330
9
100
AcDbSymbolTableRecord
100
AcDbRegAppTableRecord
  2
ACAD_DSTYLE_DIMRADIAL_EXTENSION
 70
     0
  0
ENDTAB
  0
TABLE
  2
DIMSTYLE
  5
A
330
0
100
AcDbSymbolTable
 70
     1
100
AcDbDimStyleTable
  0
DIMSTYLE
105
27
330
A
100
AcDbSymbolTableRecord
100
AcDbDimStyleTableRecord
  2
ISO-25
 70
     0
 41
2.5
 42
0.625
 43
3.75
 44
1.25
 73
     0
 74
     0
 77
     1
 78
     8
140
2.5
141
2.5
143
0.03937007874016
147
0.625
171
     3
172
     1
178
     0
271
     2
272
     2
274
     3
278
    44
283
     0
284
     8
340
11
  0
ENDTAB
  0
TABLE
  2
BLOCK_RECORD
  5
1
330
0
100
AcDbSymbolTable
 70
    36
  0
BLOCK_RECORD
  5
1F
330
1
100
AcDbSymbolTableRecord
100
AcDbBlockTableRecord
  2
*Model_Space
340
22
 70
     0
280
     1
281
     0
  0
BLOCK_RECORD
  5
1B
330
1
100
AcDbSymbolTableRecord
100
AcDbBlockTableRecord
  2
*Paper_Space
340
1E
 70
     0
280
     1
281
     0
  0
BLOCK_RECORD
  5
23
330
1
100
AcDbSymbolTableRecord
100
AcDbBlockTableRecord
  2
*Paper_Space0
340
26
 70
     0
280
     1
281
     0
  0
BLOCK_RECORD
  5
A3
330
1
100
AcDbSymbolTableRecord
100
AcDbBlockTableRecord
  2
SW_NOTE_0
340
0
 70
     0
280
     1
281
     0
  0
BLOCK_RECORD
  5
AB
330
1
100
AcDbSymbolTableRecord
100
AcDbBlockTableRecord
  2
SW_NOTE_1
340
0
 70
     0
280
     1
281
     0
  0
BLOCK_RECORD
  5
D6
330
1
100
AcDbSymbolTableRecord
100
AcDbBlockTableRecord
  2
SW_CENTERMARKSYMBOL_0
340
0
 70
     0
280
     1
281
     0
  0
BLOCK_RECORD
  5
E2
330
1
100
AcDbSymbolTableRecord
100
AcDbBlockTableRecord
  2
SW_CENTERMARKSYMBOL_1
340
0
 70
     0
280
     1
281
     0
  0
BLOCK_RECORD
  5
EE
330
1
100
AcDbSymbolTableRecord
100
AcDbBlockTableRecord
  2
SW_CENTERMARKSYMBOL_2
340
0
 70
     0
280
     1
281
     0
  0
BLOCK_RECORD
  5
FA
330
1
100
AcDbSymbolTableRecord
100
AcDbBlockTableRecord
  2
SW_CENTERMARKSYMBOL_3
340
0
 70
     0
280
     1
281
     0
  0
BLOCK_RECORD
  5
106
330
1
100
AcDbSymbolTableRecord
100
AcDbBlockTableRecord
  2
SW_CENTERMARKSYMBOL_4
340
0
 70
     0
280
     1
281
     0
  0
BLOCK_RECORD
  5
112
330
1
100
AcDbSymbolTableRecord
100
AcDbBlockTableRecord
  2
SW_CENTERMARKSYMBOL_5
340
0
 70
     0
280
     1
281
     0
  0
BLOCK_RECORD
  5
11E
330
1
100
AcDbSymbolTableRecord
100
AcDbBlockTableRecord
  2
SW_CENTERMARKSYMBOL_6
340
0
 70
     0
280
     1
281
     0
  0
BLOCK_RECORD
  5
12A
330
1
100
AcDbSymbolTableRecord
100
AcDbBlockTableRecord
  2
SW_CENTERMARKSYMBOL_7
340
0
 70
     0
280
     1
281
     0
  0
BLOCK_RECORD
  5
136
330
1
100
AcDbSymbolTableRecord
100
AcDbBlockTableRecord
  2
SW_CENTERMARKSYMBOL_8
340
0
 70
     0
280
     1
281
     0
  0
BLOCK_RECORD
  5
2B9
330
1
100
AcDbSymbolTableRecord
100
AcDbBlockTableRecord
  2
SW_CENTERMARKSYMBOL_9
340
0
 70
     0
280
     1
281
     0
  0
BLOCK_RECORD
  5
2C5
330
1
100
AcDbSymbolTableRecord
100
AcDbBlockTableRecord
  2
SW_CENTERMARKSYMBOL_10
340
0
 70
     0
280
     1
281
     0
  0
BLOCK_RECORD
  5
2D1
330
1
100
AcDbSymbolTableRecord
100
AcDbBlockTableRecord
  2
SW_CENTERMARKSYMBOL_11
340
0
 70
     0
280
     1
281
     0
  0
BLOCK_RECORD
  5
2DD
330
1
100
AcDbSymbolTableRecord
100
AcDbBlockTableRecord
  2
SW_CENTERMARKSYMBOL_12
340
0
 70
     0
280
     1
281
     0
  0
BLOCK_RECORD
  5
2E9
330
1
100
AcDbSymbolTableRecord
100
AcDbBlockTableRecord
  2
SW_CENTERMARKSYMBOL_13
340
0
 70
     0
280
     1
281
     0
  0
BLOCK_RECORD
  5
2F5
330
1
100
AcDbSymbolTableRecord
100
AcDbBlockTableRecord
  2
SW_CENTERMARKSYMBOL_14
340
0
 70
     0
280
     1
281
     0
  0
BLOCK_RECORD
  5
301
330
1
100
AcDbSymbolTableRecord
100
AcDbBlockTableRecord
  2
SW_CENTERMARKSYMBOL_15
340
0
 70
     0
280
     1
281
     0
  0
BLOCK_RECORD
  5
30D
330
1
100
AcDbSymbolTableRecord
100
AcDbBlockTableRecord
  2
SW_CENTERMARKSYMBOL_16
340
0
 70
     0
280
     1
281
     0
  0
BLOCK_RECORD
  5
319
330
1
100
AcDbSymbolTableRecord
100
AcDbBlockTableRecord
  2
SW_CENTERMARKSYMBOL_17
340
0
 70
     0
280
     1
281
     0
  0
BLOCK_RECORD
  5
325
330
1
100
AcDbSymbolTableRecord
100
AcDbBlockTableRecord
  2
SW_CENTERMARKSYMBOL_18
340
0
 70
     0
280
     1
281
     0
  0
BLOCK_RECORD
  5
331
330
1
100
AcDbSymbolTableRecord
100
AcDbBlockTableRecord
  2
SW_CENTERMARKSYMBOL_19
340
0
 70
     0
280
     1
281
     0
  0
BLOCK_RECORD
  5
33D
330
1
100
AcDbSymbolTableRecord
100
AcDbBlockTableRecord
  2
SW_CENTERMARKSYMBOL_20
340
0
 70
     0
280
     1
281
     0
  0
BLOCK_RECORD
  5
349
330
1
100
AcDbSymbolTableRecord
100
AcDbBlockTableRecord
  2
SW_CENTERMARKSYMBOL_21
340
0
 70
     0
280
     1
281
     0
  0
BLOCK_RECORD
  5
355
330
1
100
AcDbSymbolTableRecord
100
AcDbBlockTableRecord
  2
SW_CENTERMARKSYMBOL_22
340
0
 70
     0
280
     1
281
     0
  0
BLOCK_RECORD
  5
361
330
1
100
AcDbSymbolTableRecord
100
AcDbBlockTableRecord
  2
SW_CENTERMARKSYMBOL_23
340
0
 70
     0
280
     1
281
     0
  0
BLOCK_RECORD
  5
36D
330
1
100
AcDbSymbolTableRecord
100
AcDbBlockTableRecord
  2
SW_CENTERMARKSYMBOL_24
340
0
 70
     0
280
     1
281
     0
  0
BLOCK_RECORD
  5
379
330
1
100
AcDbSymbolTableRecord
100
AcDbBlockTableRecord
  2
SW_CENTERMARKSYMBOL_25
340
0
 70
     0
280
     1
281
     0
  0
BLOCK_RECORD
  5
385
330
1
100
AcDbSymbolTableRecord
100
AcDbBlockTableRecord
  2
SW_CENTERMARKSYMBOL_26
340
0
 70
     0
280
     1
281
     0
  0
BLOCK_RECORD
  5
391
330
1
100
AcDbSymbolTableRecord
100
AcDbBlockTableRecord
  2
SW_CENTERMARKSYMBOL_27
340
0
 70
     0
280
     1
281
     0
  0
ENDTAB
  0
ENDSEC
  0
SECTION
  2
BLOCKS
  0
BLOCK
  5
20
330
1F
100
AcDbEntity
  8
0
100
AcDbBlockBegin
  2
*Model_Space
 70
     0
 10
0.0
 20
0.0
 30
0.0
  3
*Model_Space
  1
*Model_Space
  0
ENDBLK
  5
21
330
1F
100
AcDbEntity
  8
0
100
AcDbBlockEnd
  0
BLOCK
  5
1C
330
1B
100
AcDbEntity
 67
     1
  8
0
100
AcDbBlockBegin
  2
*Paper_Space
 70
     0
 10
0.0
 20
0.0
 30
0.0
  3
*Paper_Space
  1
*Paper_Space
  0
ENDBLK
  5
1D
330
1B
100
AcDbEntity
 67
     1
  8
0
100
AcDbBlockEnd
  0
BLOCK
  5
24
330
23
100
AcDbEntity
  8
0
100
AcDbBlockBegin
  2
*Paper_Space0
 70
     0
 10
0.0
 20
0.0
 30
0.0
  3
*Paper_Space0
  1
*Paper_Space0
  0
ENDBLK
  5
25
330
23
100
AcDbEntity
  8
0
100
AcDbBlockEnd
  0
BLOCK
  5
A4
330
A3
100
AcDbEntity
  8
0
100
AcDbBlockBegin
  2
SW_NOTE_0
 70
     0
 10
0.0
 20
0.0
 30
0.0
  3
SW_NOTE_0
  1
SW_NOTE_0
  0
MTEXT
  5
A6
330
A3
100
AcDbEntity
  8
0
  6
Continuous
 62
     0
370
     0
100
AcDbMText
 10
0.0
 20
1.933601609657942
 30
0.0
 40
1.5
 41
0.0
 46
0.0
 71
     1
 72
     1
  1
SBAVATURA E
  7
SLDTEXTSTYLE0
 73
     1
 44
1.0
  0
MTEXT
  5
A7
330
A3
100
AcDbEntity
  8
0
  6
Continuous
 62
     0
370
     0
100
AcDbMText
 10
0.0
 20
-0.5663983344626964
 30
0.0
 40
1.5
 41
0.0
 46
0.0
 71
     1
 72
     1
  1
INTERRUZIONE DEI
  7
SLDTEXTSTYLE0
 73
     1
 44
1.0
  0
MTEXT
  5
A8
330
A3
100
AcDbEntity
  8
0
  6
Continuous
 62
     0
370
     0
100
AcDbMText
 10
0.0
 20
-3.066398278583342
 30
0.0
 40
1.5
 41
0.0
 46
0.0
 71
     1
 72
     1
  1
BORDI NETTI
  7
SLDTEXTSTYLE0
 73
     1
 44
1.0
  0
ENDBLK
  5
A5
330
A3
100
AcDbEntity
  8
0
100
AcDbBlockEnd
  0
BLOCK
  5
AC
330
AB
100
AcDbEntity
  8
0
100
AcDbBlockBegin
  2
SW_NOTE_1
 70
     0
 10
0.0
 20
0.0
 30
0.0
  3
SW_NOTE_1
  1
SW_NOTE_1
  0
MTEXT
  5
AE
330
AB
100
AcDbEntity
  8
0
  6
Continuous
 62
     0
370
     0
100
AcDbMText
 10
0.0
 20
1.933601609657942
 30
0.0
 40
1.5
 41
0.0
 46
0.0
 71
     1
 72
     1
  1
SE NON SPECIFICATO:
  7
SLDTEXTSTYLE0
 73
     1
 44
1.0
  0
MTEXT
  5
AF
330
AB
100
AcDbEntity
  8
0
  6
Continuous
 62
     0
370
     0
100
AcDbMText
 10
0.0
 20
-0.5663983344626964
 30
0.0
 40
1.5
 41
0.0
 46
0.0
 71
     1
 72
     1
  1
QUOTE IN MILLIMETRI
  7
SLDTEXTSTYLE0
 73
     1
 44
1.0
  0
MTEXT
  5
B0
330
AB
100
AcDbEntity
  8
0
  6
Continuous
 62
     0
370
     0
100
AcDbMText
 10
0.0
 20
-3.066398278583342
 30
0.0
 40
1.5
 41
0.0
 46
0.0
 71
     1
 72
     1
  1
FINITURA SUPERFICIE:
  7
SLDTEXTSTYLE0
 73
     1
 44
1.0
  0
MTEXT
  5
B1
330
AB
100
AcDbEntity
  8
0
  6
Continuous
 62
     0
370
     0
100
AcDbMText
 10
0.0
 20
-5.566398222703987
 30
0.0
 40
1.5
 41
0.0
 46
0.0
 71
     1
 72
     1
  1
TOLLERANZE:
  7
SLDTEXTSTYLE0
 73
     1
 44
1.0
  0
MTEXT
  5
B2
330
AB
100
AcDbEntity
  8
0
  6
Continuous
 62
     0
370
     0
100
AcDbMText
 10
1.687500000000008
 20
-8.066398166824634
 30
0.0
 40
1.5
 41
0.0
 46
0.0
 71
     1
 72
     1
  1
LINEARE:
  7
SLDTEXTSTYLE0
 73
     1
 44
1.0
  0
MTEXT
  5
B3
330
AB
100
AcDbEntity
  8
0
  6
Continuous
 62
     0
370
     0
100
AcDbMText
 10
1.687500000000008
 20
-10.56639811094528
 30
0.0
 40
1.5
 41
0.0
 46
0.0
 71
     1
 72
     1
  1
ANGOLARE:
  7
SLDTEXTSTYLE0
 73
     1
 44
1.0
  0
ENDBLK
  5
AD
330
AB
100
AcDbEntity
  8
0
100
AcDbBlockEnd
  0
BLOCK
  5
D7
330
D6
100
AcDbEntity
  8
0
100
AcDbBlockBegin
  2
SW_CENTERMARKSYMBOL_0
 70
     0
 10
0.0
 20
0.0
 30
0.0
  3
SW_CENTERMARKSYMBOL_0
  1
SW_CENTERMARKSYMBOL_0
  0
LINE
  5
D9
330
D6
100
AcDbEntity
  8
0
  6
Continuous
 62
     0
370
     0
100
AcDbLine
 10
0.0
 20
0.0
 30
0.0
 11
0.0
 21
0.5000000000000004
 31
0.0
  0
LINE
  5
DA
330
D6
100
AcDbEntity
  8
0
  6
Continuous
 62
     0
370
     0
100
AcDbLine
 10
0.0
 20
0.0
 30
0.0
 11
-0.5000000000000004
 21
0.0
 31
0.0
  0
LINE
  5
DB
330
D6
100
AcDbEntity
  8
0
  6
Continuous
 62
     0
370
     0
100
AcDbLine
 10
0.0
 20
0.0
 30
0.0
 11
0.0
 21
-0.5000000000000004
 31
0.0
  0
LINE
  5
DC
330
D6
100
AcDbEntity
  8
0
  6
Continuous
 62
     0
370
     0
100
AcDbLine
 10
0.0
 20
0.0
 30
0.0
 11
0.5000000000000004
 21
0.0
 31
0.0
  0
LINE
  5
DD
330
D6
100
AcDbEntity
  8
0
  6
Continuous
 62
     0
370
     0
100
AcDbLine
 10
0.0
 20
0.5000000000000004
 30
0.0
 11
0.0
 21
0.7500000000000007
 31
0.0
  0
LINE
  5
DE
330
D6
100
AcDbEntity
  8
0
  6
Continuous
 62
     0
370
     0
100
AcDbLine
 10
-0.5000000000000004
 20
0.0
 30
0.0
 11
-0.7500000000000007
 21
0.0
 31
0.0
  0
LINE
  5
DF
330
D6
100
AcDbEntity
  8
0
  6
Continuous
 62
     0
370
     0
100
AcDbLine
 10
0.0
 20
-0.5000000000000004
 30
0.0
 11
0.0
 21
-0.7500000000000007
 31
0.0
  0
LINE
  5
E0
330
D6
100
AcDbEntity
  8
0
  6
Continuous
 62
     0
370
     0
100
AcDbLine
 10
0.5000000000000004
 20
0.0
 30
0.0
 11
0.7500000000000007
 21
0.0
 31
0.0
  0
ENDBLK
  5
D8
330
D6
100
AcDbEntity
  8
0
100
AcDbBlockEnd
  0
BLOCK
  5
E3
330
E2
100
AcDbEntity
  8
0
100
AcDbBlockBegin
  2
SW_CENTERMARKSYMBOL_1
 70
     0
 10
0.0
 20
0.0
 30
0.0
  3
SW_CENTERMARKSYMBOL_1
  1
SW_CENTERMARKSYMBOL_1
  0
LINE
  5
E5
330
E2
100
AcDbEntity
  8
0
  6
Continuous
 62
     0
370
     0
100
AcDbLine
 10
0.0
 20
0.0
 30
0.0
 11
0.0
 21
0.5000000000000004
 31
0.0
  0
LINE
  5
E6
330
E2
100
AcDbEntity
  8
0
  6
Continuous
 62
     0
370
     0
100
AcDbLine
 10
0.0
 20
0.0
 30
0.0
 11
-0.5000000000000004
 21
0.0
 31
0.0
  0
LINE
  5
E7
330
E2
100
AcDbEntity
  8
0
  6
Continuous
 62
     0
370
     0
100
AcDbLine
 10
0.0
 20
0.0
 30
0.0
 11
0.0
 21
-0.5000000000000004
 31
0.0
  0
LINE
  5
E8
330
E2
100
AcDbEntity
  8
0
  6
Continuous
 62
     0
370
     0
100
AcDbLine
 10
0.0
 20
0.0
 30
0.0
 11
0.5000000000000004
 21
0.0
 31
0.0
  0
LINE
  5
E9
330
E2
100
AcDbEntity
  8
0
  6
Continuous
 62
     0
370
     0
100
AcDbLine
 10
0.0
 20
0.5000000000000004
 30
0.0
 11
0.0
 21
0.7500000000000007
 31
0.0
  0
LINE
  5
EA
330
E2
100
AcDbEntity
  8
0
  6
Continuous
 62
     0
370
     0
100
AcDbLine
 10
-0.5000000000000004
 20
0.0
 30
0.0
 11
-0.7500000000000007
 21
0.0
 31
0.0
  0
LINE
  5
EB
330
E2
100
AcDbEntity
  8
0
  6
Continuous
 62
     0
370
     0
100
AcDbLine
 10
0.0
 20
-0.5000000000000004
 30
0.0
 11
0.0
 21
-0.7500000000000007
 31
0.0
  0
LINE
  5
EC
330
E2
100
AcDbEntity
  8
0
  6
Continuous
 62
     0
370
     0
100
AcDbLine
 10
0.5000000000000004
 20
0.0
 30
0.0
 11
0.7500000000000007
 21
0.0
 31
0.0
  0
ENDBLK
  5
E4
330
E2
100
AcDbEntity
  8
0
100
AcDbBlockEnd
  0
BLOCK
  5
EF
330
EE
100
AcDbEntity
  8
0
100
AcDbBlockBegin
  2
SW_CENTERMARKSYMBOL_2
 70
     0
 10
0.0
 20
0.0
 30
0.0
  3
SW_CENTERMARKSYMBOL_2
  1
SW_CENTERMARKSYMBOL_2
  0
LINE
  5
F1
330
EE
100
AcDbEntity
  8
0
  6
Continuous
 62
     0
370
     0
100
AcDbLine
 10
0.0
 20
0.0
 30
0.0
 11
0.0
 21
0.5000000000000004
 31
0.0
  0
LINE
  5
F2
330
EE
100
AcDbEntity
  8
0
  6
Continuous
 62
     0
370
     0
100
AcDbLine
 10
0.0
 20
0.0
 30
0.0
 11
-0.5000000000000004
 21
0.0
 31
0.0
  0
LINE
  5
F3
330
EE
100
AcDbEntity
  8
0
  6
Continuous
 62
     0
370
     0
100
AcDbLine
 10
0.0
 20
0.0
 30
0.0
 11
0.0
 21
-0.5000000000000004
 31
0.0
  0
LINE
  5
F4
330
EE
100
AcDbEntity
  8
0
  6
Continuous
 62
     0
370
     0
100
AcDbLine
 10
0.0
 20
0.0
 30
0.0
 11
0.5000000000000004
 21
0.0
 31
0.0
  0
LINE
  5
F5
330
EE
100
AcDbEntity
  8
0
  6
Continuous
 62
     0
370
     0
100
AcDbLine
 10
0.0
 20
0.5000000000000004
 30
0.0
 11
0.0
 21
0.7500000000000007
 31
0.0
  0
LINE
  5
F6
330
EE
100
AcDbEntity
  8
0
  6
Continuous
 62
     0
370
     0
100
AcDbLine
 10
-0.5000000000000004
 20
0.0
 30
0.0
 11
-0.7499999999999729
 21
0.0
 31
0.0
  0
LINE
  5
F7
330
EE
100
AcDbEntity
  8
0
  6
Continuous
 62
     0
370
     0
100
AcDbLine
 10
0.0
 20
-0.5000000000000004
 30
0.0
 11
0.0
 21
-0.7500000000000007
 31
0.0
  0
LINE
  5
F8
330
EE
100
AcDbEntity
  8
0
  6
Continuous
 62
     0
370
     0
100
AcDbLine
 10
0.5000000000000004
 20
0.0
 30
0.0
 11
0.7500000000000007
 21
0.0
 31
0.0
  0
ENDBLK
  5
F0
330
EE
100
AcDbEntity
  8
0
100
AcDbBlockEnd
  0
BLOCK
  5
FB
330
FA
100
AcDbEntity
  8
0
100
AcDbBlockBegin
  2
SW_CENTERMARKSYMBOL_3
 70
     0
 10
0.0
 20
0.0
 30
0.0
  3
SW_CENTERMARKSYMBOL_3
  1
SW_CENTERMARKSYMBOL_3
  0
LINE
  5
FD
330
FA
100
AcDbEntity
  8
0
  6
Continuous
 62
     0
370
     0
100
AcDbLine
 10
0.0
 20
0.0
 30
0.0
 11
0.0
 21
0.5000000000000004
 31
0.0
  0
LINE
  5
FE
330
FA
100
AcDbEntity
  8
0
  6
Continuous
 62
     0
370
     0
100
AcDbLine
 10
0.0
 20
0.0
 30
0.0
 11
-0.5000000000000004
 21
0.0
 31
0.0
  0
LINE
  5
FF
330
FA
100
AcDbEntity
  8
0
  6
Continuous
 62
     0
370
     0
100
AcDbLine
 10
0.0
 20
0.0
 30
0.0
 11
0.0
 21
-0.5000000000000004
 31
0.0
  0
LINE
  5
100
330
FA
100
AcDbEntity
  8
0
  6
Continuous
 62
     0
370
     0
100
AcDbLine
 10
0.0
 20
0.0
 30
0.0
 11
0.5000000000000004
 21
0.0
 31
0.0
  0
LINE
  5
101
330
FA
100
AcDbEntity
  8
0
  6
Continuous
 62
     0
370
     0
100
AcDbLine
 10
0.0
 20
0.5000000000000004
 30
0.0
 11
0.0
 21
0.7500000000000007
 31
0.0
  0
LINE
  5
102
330
FA
100
AcDbEntity
  8
0
  6
Continuous
 62
     0
370
     0
100
AcDbLine
 10
-0.5000000000000004
 20
0.0
 30
0.0
 11
-0.7500000000000007
 21
0.0
 31
0.0
  0
LINE
  5
103
330
FA
100
AcDbEntity
  8
0
  6
Continuous
 62
     0
370
     0
100
AcDbLine
 10
0.0
 20
-0.5000000000000004
 30
0.0
 11
0.0
 21
-0.7500000000000007
 31
0.0
  0
LINE
  5
104
330
FA
100
AcDbEntity
  8
0
  6
Continuous
 62
     0
370
     0
100
AcDbLine
 10
0.5000000000000004
 20
0.0
 30
0.0
 11
0.7500000000000007
 21
0.0
 31
0.0
  0
ENDBLK
  5
FC
330
FA
100
AcDbEntity
  8
0
100
AcDbBlockEnd
  0
BLOCK
  5
107
330
106
100
AcDbEntity
  8
0
100
AcDbBlockBegin
  2
SW_CENTERMARKSYMBOL_4
 70
     0
 10
0.0
 20
0.0
 30
0.0
  3
SW_CENTERMARKSYMBOL_4
  1
SW_CENTERMARKSYMBOL_4
  0
LINE
  5
109
330
106
100
AcDbEntity
  8
0
  6
Continuous
 62
     0
370
     0
100
AcDbLine
 10
0.0
 20
0.0
 30
0.0
 11
0.0
 21
0.5000000000000004
 31
0.0
  0
LINE
  5
10A
330
106
100
AcDbEntity
  8
0
  6
Continuous
 62
     0
370
     0
100
AcDbLine
 10
0.0
 20
0.0
 30
0.0
 11
-0.4999999999999866
 21
0.0
 31
0.0
  0
LINE
  5
10B
330
106
100
AcDbEntity
  8
0
  6
Continuous
 62
     0
370
     0
100
AcDbLine
 10
0.0
 20
0.0
 30
0.0
 11
0.0
 21
-0.5000000000000004
 31
0.0
  0
LINE
  5
10C
330
106
100
AcDbEntity
  8
0
  6
Continuous
 62
     0
370
     0
100
AcDbLine
 10
0.0
 20
0.0
 30
0.0
 11
0.5000000000000004
 21
0.0
 31
0.0
  0
LINE
  5
10D
330
106
100
AcDbEntity
  8
0
  6
Continuous
 62
     0
370
     0
100
AcDbLine
 10
0.0
 20
0.5000000000000004
 30
0.0
 11
0.0
 21
0.7500000000000007
 31
0.0
  0
LINE
  5
10E
330
106
100
AcDbEntity
  8
0
  6
Continuous
 62
     0
370
     0
100
AcDbLine
 10
-0.4999999999999866
 20
0.0
 30
0.0
 11
-0.7499999999999868
 21
0.0
 31
0.0
  0
LINE
  5
10F
330
106
100
AcDbEntity
  8
0
  6
Continuous
 62
     0
370
     0
100
AcDbLine
 10
0.0
 20
-0.5000000000000004
 30
0.0
 11
0.0
 21
-0.7500000000000007
 31
0.0
  0
LINE
  5
110
330
106
100
AcDbEntity
  8
0
  6
Continuous
 62
     0
370
     0
100
AcDbLine
 10
0.5000000000000004
 20
0.0
 30
0.0
 11
0.7500000000000284
 21
0.0
 31
0.0
  0
ENDBLK
  5
108
330
106
100
AcDbEntity
  8
0
100
AcDbBlockEnd
  0
BLOCK
  5
113
330
112
100
AcDbEntity
  8
0
100
AcDbBlockBegin
  2
SW_CENTERMARKSYMBOL_5
 70
     0
 10
0.0
 20
0.0
 30
0.0
  3
SW_CENTERMARKSYMBOL_5
  1
SW_CENTERMARKSYMBOL_5
  0
LINE
  5
115
330
112
100
AcDbEntity
  8
0
  6
Continuous
 62
     0
370
     0
100
AcDbLine
 10
0.0
 20
0.0
 30
0.0
 11
0.0
 21
0.5000000000000004
 31
0.0
  0
LINE
  5
116
330
112
100
AcDbEntity
  8
0
  6
Continuous
 62
     0
370
     0
100
AcDbLine
 10
0.0
 20
0.0
 30
0.0
 11
-0.5000000000000004
 21
0.0
 31
0.0
  0
LINE
  5
117
330
112
100
AcDbEntity
  8
0
  6
Continuous
 62
     0
370
     0
100
AcDbLine
 10
0.0
 20
0.0
 30
0.0
 11
0.0
 21
-0.5000000000000004
 31
0.0
  0
LINE
  5
118
330
112
100
AcDbEntity
  8
0
  6
Continuous
 62
     0
370
     0
100
AcDbLine
 10
0.0
 20
0.0
 30
0.0
 11
0.5000000000000004
 21
0.0
 31
0.0
  0
LINE
  5
119
330
112
100
AcDbEntity
  8
0
  6
Continuous
 62
     0
370
     0
100
AcDbLine
 10
0.0
 20
0.5000000000000004
 30
0.0
 11
0.0
 21
0.7500000000000007
 31
0.0
  0
LINE
  5
11A
330
112
100
AcDbEntity
  8
0
  6
Continuous
 62
     0
370
     0
100
AcDbLine
 10
-0.5000000000000004
 20
0.0
 30
0.0
 11
-0.7500000000000007
 21
0.0
 31
0.0
  0
LINE
  5
11B
330
112
100
AcDbEntity
  8
0
  6
Continuous
 62
     0
370
     0
100
AcDbLine
 10
0.0
 20
-0.5000000000000004
 30
0.0
 11
0.0
 21
-0.7500000000000007
 31
0.0
  0
LINE
  5
11C
330
112
100
AcDbEntity
  8
0
  6
Continuous
 62
     0
370
     0
100
AcDbLine
 10
0.5000000000000004
 20
0.0
 30
0.0
 11
0.7500000000000007
 21
0.0
 31
0.0
  0
ENDBLK
  5
114
330
112
100
AcDbEntity
  8
0
100
AcDbBlockEnd
  0
BLOCK
  5
11F
330
11E
100
AcDbEntity
  8
0
100
AcDbBlockBegin
  2
SW_CENTERMARKSYMBOL_6
 70
     0
 10
0.0
 20
0.0
 30
0.0
  3
SW_CENTERMARKSYMBOL_6
  1
SW_CENTERMARKSYMBOL_6
  0
LINE
  5
121
330
11E
100
AcDbEntity
  8
0
  6
Continuous
 62
     0
370
     0
100
AcDbLine
 10
0.0
 20
0.0
 30
0.0
 11
0.0
 21
0.5000000000000004
 31
0.0
  0
LINE
  5
122
330
11E
100
AcDbEntity
  8
0
  6
Continuous
 62
     0
370
     0
100
AcDbLine
 10
0.0
 20
0.0
 30
0.0
 11
-0.5000000000000004
 21
0.0
 31
0.0
  0
LINE
  5
123
330
11E
100
AcDbEntity
  8
0
  6
Continuous
 62
     0
370
     0
100
AcDbLine
 10
0.0
 20
0.0
 30
0.0
 11
0.0
 21
-0.5000000000000004
 31
0.0
  0
LINE
  5
124
330
11E
100
AcDbEntity
  8
0
  6
Continuous
 62
     0
370
     0
100
AcDbLine
 10
0.0
 20
0.0
 30
0.0
 11
0.5000000000000004
 21
0.0
 31
0.0
  0
LINE
  5
125
330
11E
100
AcDbEntity
  8
0
  6
Continuous
 62
     0
370
     0
100
AcDbLine
 10
0.0
 20
0.5000000000000004
 30
0.0
 11
0.0
 21
0.7500000000000007
 31
0.0
  0
LINE
  5
126
330
11E
100
AcDbEntity
  8
0
  6
Continuous
 62
     0
370
     0
100
AcDbLine
 10
-0.5000000000000004
 20
0.0
 30
0.0
 11
-0.7500000000000007
 21
0.0
 31
0.0
  0
LINE
  5
127
330
11E
100
AcDbEntity
  8
0
  6
Continuous
 62
     0
370
     0
100
AcDbLine
 10
0.0
 20
-0.5000000000000004
 30
0.0
 11
0.0
 21
-0.7500000000000007
 31
0.0
  0
LINE
  5
128
330
11E
100
AcDbEntity
  8
0
  6
Continuous
 62
     0
370
     0
100
AcDbLine
 10
0.5000000000000004
 20
0.0
 30
0.0
 11
0.7500000000000007
 21
0.0
 31
0.0
  0
ENDBLK
  5
120
330
11E
100
AcDbEntity
  8
0
100
AcDbBlockEnd
  0
BLOCK
  5
12B
330
12A
100
AcDbEntity
  8
0
100
AcDbBlockBegin
  2
SW_CENTERMARKSYMBOL_7
 70
     0
 10
0.0
 20
0.0
 30
0.0
  3
SW_CENTERMARKSYMBOL_7
  1
SW_CENTERMARKSYMBOL_7
  0
LINE
  5
12D
330
12A
100
AcDbEntity
  8
0
  6
Continuous
 62
     0
370
     0
100
AcDbLine
 10
0.0
 20
0.0
 30
0.0
 11
0.0
 21
0.5000000000000004
 31
0.0
  0
LINE
  5
12E
330
12A
100
AcDbEntity
  8
0
  6
Continuous
 62
     0
370
     0
100
AcDbLine
 10
0.0
 20
0.0
 30
0.0
 11
-0.5000000000000004
 21
0.0
 31
0.0
  0
LINE
  5
12F
330
12A
100
AcDbEntity
  8
0
  6
Continuous
 62
     0
370
     0
100
AcDbLine
 10
0.0
 20
0.0
 30
0.0
 11
0.0
 21
-0.5000000000000004
 31
0.0
  0
LINE
  5
130
330
12A
100
AcDbEntity
  8
0
  6
Continuous
 62
     0
370
     0
100
AcDbLine
 10
0.0
 20
0.0
 30
0.0
 11
0.5000000000000004
 21
0.0
 31
0.0
  0
LINE
  5
131
330
12A
100
AcDbEntity
  8
0
  6
Continuous
 62
     0
370
     0
100
AcDbLine
 10
0.0
 20
0.5000000000000004
 30
0.0
 11
0.0
 21
0.7500000000000007
 31
0.0
  0
LINE
  5
132
330
12A
100
AcDbEntity
  8
0
  6
Continuous
 62
     0
370
     0
100
AcDbLine
 10
-0.5000000000000004
 20
0.0
 30
0.0
 11
-0.7500000000000007
 21
0.0
 31
0.0
  0
LINE
  5
133
330
12A
100
AcDbEntity
  8
0
  6
Continuous
 62
     0
370
     0
100
AcDbLine
 10
0.0
 20
-0.5000000000000004
 30
0.0
 11
0.0
 21
-0.7500000000000007
 31
0.0
  0
LINE
  5
134
330
12A
100
AcDbEntity
  8
0
  6
Continuous
 62
     0
370
     0
100
AcDbLine
 10
0.5000000000000004
 20
0.0
 30
0.0
 11
0.7500000000000007
 21
0.0
 31
0.0
  0
ENDBLK
  5
12C
330
12A
100
AcDbEntity
  8
0
100
AcDbBlockEnd
  0
BLOCK
  5
137
330
136
100
AcDbEntity
  8
0
100
AcDbBlockBegin
  2
SW_CENTERMARKSYMBOL_8
 70
     0
 10
0.0
 20
0.0
 30
0.0
  3
SW_CENTERMARKSYMBOL_8
  1
SW_CENTERMARKSYMBOL_8
  0
LINE
  5
139
330
136
100
AcDbEntity
  8
0
  6
Continuous
 62
     0
370
     0
100
AcDbLine
 10
0.0
 20
0.0
 30
0.0
 11
0.0
 21
0.5000000000000004
 31
0.0
  0
LINE
  5
13A
330
136
100
AcDbEntity
  8
0
  6
Continuous
 62
     0
370
     0
100
AcDbLine
 10
0.0
 20
0.0
 30
0.0
 11
-0.5000000000000004
 21
0.0
 31
0.0
  0
LINE
  5
13B
330
136
100
AcDbEntity
  8
0
  6
Continuous
 62
     0
370
     0
100
AcDbLine
 10
0.0
 20
0.0
 30
0.0
 11
0.0
 21
-0.5000000000000004
 31
0.0
  0
LINE
  5
13C
330
136
100
AcDbEntity
  8
0
  6
Continuous
 62
     0
370
     0
100
AcDbLine
 10
0.0
 20
0.0
 30
0.0
 11
0.5000000000000004
 21
0.0
 31
0.0
  0
LINE
  5
13D
330
136
100
AcDbEntity
  8
0
  6
Continuous
 62
     0
370
     0
100
AcDbLine
 10
0.0
 20
0.5000000000000004
 30
0.0
 11
0.0
 21
0.7500000000000007
 31
0.0
  0
LINE
  5
13E
330
136
100
AcDbEntity
  8
0
  6
Continuous
 62
     0
370
     0
100
AcDbLine
 10
-0.5000000000000004
 20
0.0
 30
0.0
 11
-0.7500000000000007
 21
0.0
 31
0.0
  0
LINE
  5
13F
330
136
100
AcDbEntity
  8
0
  6
Continuous
 62
     0
370
     0
100
AcDbLine
 10
0.0
 20
-0.5000000000000004
 30
0.0
 11
0.0
 21
-0.7500000000000007
 31
0.0
  0
LINE
  5
140
330
136
100
AcDbEntity
  8
0
  6
Continuous
 62
     0
370
     0
100
AcDbLine
 10
0.5000000000000004
 20
0.0
 30
0.0
 11
0.7500000000000007
 21
0.0
 31
0.0
  0
ENDBLK
  5
138
330
136
100
AcDbEntity
  8
0
100
AcDbBlockEnd
  0
BLOCK
  5
2BA
330
2B9
100
AcDbEntity
  8
0
100
AcDbBlockBegin
  2
SW_CENTERMARKSYMBOL_9
 70
     0
 10
0.0
 20
0.0
 30
0.0
  3
SW_CENTERMARKSYMBOL_9
  1
SW_CENTERMARKSYMBOL_9
  0
LINE
  5
2BB
330
2B9
100
AcDbEntity
  8
0
  6
Continuous
 62
     0
370
     0
100
AcDbLine
 10
0.0
 20
0.0
 30
0.0
 11
0.0
 21
1.250000000000001
 31
0.0
  0
LINE
  5
2BC
330
2B9
100
AcDbEntity
  8
0
  6
Continuous
 62
     0
370
     0
100
AcDbLine
 10
0.0
 20
0.0
 30
0.0
 11
-1.250000000000001
 21
0.0
 31
0.0
  0
LINE
  5
2BD
330
2B9
100
AcDbEntity
  8
0
  6
Continuous
 62
     0
370
     0
100
AcDbLine
 10
0.0
 20
0.0
 30
0.0
 11
0.0
 21
-1.250000000000001
 31
0.0
  0
LINE
  5
2BE
330
2B9
100
AcDbEntity
  8
0
  6
Continuous
 62
     0
370
     0
100
AcDbLine
 10
0.0
 20
0.0
 30
0.0
 11
1.250000000000001
 21
0.0
 31
0.0
  0
LINE
  5
2BF
330
2B9
100
AcDbEntity
  8
0
  6
Continuous
 62
     0
370
     0
100
AcDbLine
 10
0.0
 20
1.250000000000001
 30
0.0
 11
0.0
 21
1.874999999999988
 31
0.0
  0
LINE
  5
2C0
330
2B9
100
AcDbEntity
  8
0
  6
Continuous
 62
     0
370
     0
100
AcDbLine
 10
-1.250000000000001
 20
0.0
 30
0.0
 11
-1.874999999999988
 21
0.0
 31
0.0
  0
LINE
  5
2C1
330
2B9
100
AcDbEntity
  8
0
  6
Continuous
 62
     0
370
     0
100
AcDbLine
 10
0.0
 20
-1.250000000000001
 30
0.0
 11
0.0
 21
-1.874999999999988
 31
0.0
  0
LINE
  5
2C2
330
2B9
100
AcDbEntity
  8
0
  6
Continuous
 62
     0
370
     0
100
AcDbLine
 10
1.250000000000001
 20
0.0
 30
0.0
 11
1.874999999999988
 21
0.0
 31
0.0
  0
ENDBLK
  5
2C3
330
2B9
100
AcDbEntity
  8
0
100
AcDbBlockEnd
  0
BLOCK
  5
2C6
330
2C5
100
AcDbEntity
  8
0
100
AcDbBlockBegin
  2
SW_CENTERMARKSYMBOL_10
 70
     0
 10
0.0
 20
0.0
 30
0.0
  3
SW_CENTERMARKSYMBOL_10
  1
SW_CENTERMARKSYMBOL_10
  0
LINE
  5
2C7
330
2C5
100
AcDbEntity
  8
0
  6
Continuous
 62
     0
370
     0
100
AcDbLine
 10
0.0
 20
0.0
 30
0.0
 11
0.0
 21
1.250000000000001
 31
0.0
  0
LINE
  5
2C8
330
2C5
100
AcDbEntity
  8
0
  6
Continuous
 62
     0
370
     0
100
AcDbLine
 10
0.0
 20
0.0
 30
0.0
 11
-1.250000000000001
 21
0.0
 31
0.0
  0
LINE
  5
2C9
330
2C5
100
AcDbEntity
  8
0
  6
Continuous
 62
     0
370
     0
100
AcDbLine
 10
0.0
 20
0.0
 30
0.0
 11
0.0
 21
-1.250000000000001
 31
0.0
  0
LINE
  5
2CA
330
2C5
100
AcDbEntity
  8
0
  6
Continuous
 62
     0
370
     0
100
AcDbLine
 10
0.0
 20
0.0
 30
0.0
 11
1.250000000000001
 21
0.0
 31
0.0
  0
LINE
  5
2CB
330
2C5
100
AcDbEntity
  8
0
  6
Continuous
 62
     0
370
     0
100
AcDbLine
 10
0.0
 20
1.250000000000001
 30
0.0
 11
0.0
 21
1.874999999999988
 31
0.0
  0
LINE
  5
2CC
330
2C5
100
AcDbEntity
  8
0
  6
Continuous
 62
     0
370
     0
100
AcDbLine
 10
-1.250000000000001
 20
0.0
 30
0.0
 11
-1.874999999999988
 21
0.0
 31
0.0
  0
LINE
  5
2CD
330
2C5
100
AcDbEntity
  8
0
  6
Continuous
 62
     0
370
     0
100
AcDbLine
 10
0.0
 20
-1.250000000000001
 30
0.0
 11
0.0
 21
-1.874999999999988
 31
0.0
  0
LINE
  5
2CE
330
2C5
100
AcDbEntity
  8
0
  6
Continuous
 62
     0
370
     0
100
AcDbLine
 10
1.250000000000001
 20
0.0
 30
0.0
 11
1.874999999999988
 21
0.0
 31
0.0
  0
ENDBLK
  5
2CF
330
2C5
100
AcDbEntity
  8
0
100
AcDbBlockEnd
  0
BLOCK
  5
2D2
330
2D1
100
AcDbEntity
  8
0
100
AcDbBlockBegin
  2
SW_CENTERMARKSYMBOL_11
 70
     0
 10
0.0
 20
0.0
 30
0.0
  3
SW_CENTERMARKSYMBOL_11
  1
SW_CENTERMARKSYMBOL_11
  0
LINE
  5
2D3
330
2D1
100
AcDbEntity
  8
0
  6
Continuous
 62
     0
370
     0
100
AcDbLine
 10
0.0
 20
0.0
 30
0.0
 11
0.0
 21
1.250000000000001
 31
0.0
  0
LINE
  5
2D4
330
2D1
100
AcDbEntity
  8
0
  6
Continuous
 62
     0
370
     0
100
AcDbLine
 10
0.0
 20
0.0
 30
0.0
 11
-1.250000000000001
 21
0.0
 31
0.0
  0
LINE
  5
2D5
330
2D1
100
AcDbEntity
  8
0
  6
Continuous
 62
     0
370
     0
100
AcDbLine
 10
0.0
 20
0.0
 30
0.0
 11
0.0
 21
-1.250000000000001
 31
0.0
  0
LINE
  5
2D6
330
2D1
100
AcDbEntity
  8
0
  6
Continuous
 62
     0
370
     0
100
AcDbLine
 10
0.0
 20
0.0
 30
0.0
 11
1.250000000000001
 21
0.0
 31
0.0
  0
LINE
  5
2D7
330
2D1
100
AcDbEntity
  8
0
  6
Continuous
 62
     0
370
     0
100
AcDbLine
 10
0.0
 20
1.250000000000001
 30
0.0
 11
0.0
 21
1.874999999999988
 31
0.0
  0
LINE
  5
2D8
330
2D1
100
AcDbEntity
  8
0
  6
Continuous
 62
     0
370
     0
100
AcDbLine
 10
-1.250000000000001
 20
0.0
 30
0.0
 11
-1.874999999999988
 21
0.0
 31
0.0
  0
LINE
  5
2D9
330
2D1
100
AcDbEntity
  8
0
  6
Continuous
 62
     0
370
     0
100
AcDbLine
 10
0.0
 20
-1.250000000000001
 30
0.0
 11
0.0
 21
-1.874999999999988
 31
0.0
  0
LINE
  5
2DA
330
2D1
100
AcDbEntity
  8
0
  6
Continuous
 62
     0
370
     0
100
AcDbLine
 10
1.250000000000001
 20
0.0
 30
0.0
 11
1.874999999999988
 21
0.0
 31
0.0
  0
ENDBLK
  5
2DB
330
2D1
100
AcDbEntity
  8
0
100
AcDbBlockEnd
  0
BLOCK
  5
2DE
330
2DD
100
AcDbEntity
  8
0
100
AcDbBlockBegin
  2
SW_CENTERMARKSYMBOL_12
 70
     0
 10
0.0
 20
0.0
 30
0.0
  3
SW_CENTERMARKSYMBOL_12
  1
SW_CENTERMARKSYMBOL_12
  0
LINE
  5
2DF
330
2DD
100
AcDbEntity
  8
0
  6
Continuous
 62
     0
370
     0
100
AcDbLine
 10
0.0
 20
0.0
 30
0.0
 11
0.0
 21
1.250000000000001
 31
0.0
  0
LINE
  5
2E0
330
2DD
100
AcDbEntity
  8
0
  6
Continuous
 62
     0
370
     0
100
AcDbLine
 10
0.0
 20
0.0
 30
0.0
 11
-1.250000000000001
 21
0.0
 31
0.0
  0
LINE
  5
2E1
330
2DD
100
AcDbEntity
  8
0
  6
Continuous
 62
     0
370
     0
100
AcDbLine
 10
0.0
 20
0.0
 30
0.0
 11
0.0
 21
-1.250000000000001
 31
0.0
  0
LINE
  5
2E2
330
2DD
100
AcDbEntity
  8
0
  6
Continuous
 62
     0
370
     0
100
AcDbLine
 10
0.0
 20
0.0
 30
0.0
 11
1.250000000000001
 21
0.0
 31
0.0
  0
LINE
  5
2E3
330
2DD
100
AcDbEntity
  8
0
  6
Continuous
 62
     0
370
     0
100
AcDbLine
 10
0.0
 20
1.250000000000001
 30
0.0
 11
0.0
 21
1.874999999999988
 31
0.0
  0
LINE
  5
2E4
330
2DD
100
AcDbEntity
  8
0
  6
Continuous
 62
     0
370
     0
100
AcDbLine
 10
-1.250000000000001
 20
0.0
 30
0.0
 11
-1.874999999999988
 21
0.0
 31
0.0
  0
LINE
  5
2E5
330
2DD
100
AcDbEntity
  8
0
  6
Continuous
 62
     0
370
     0
100
AcDbLine
 10
0.0
 20
-1.250000000000001
 30
0.0
 11
0.0
 21
-1.874999999999988
 31
0.0
  0
LINE
  5
2E6
330
2DD
100
AcDbEntity
  8
0
  6
Continuous
 62
     0
370
     0
100
AcDbLine
 10
1.250000000000001
 20
0.0
 30
0.0
 11
1.874999999999988
 21
0.0
 31
0.0
  0
ENDBLK
  5
2E7
330
2DD
100
AcDbEntity
  8
0
100
AcDbBlockEnd
  0
BLOCK
  5
2EA
330
2E9
100
AcDbEntity
  8
0
100
AcDbBlockBegin
  2
SW_CENTERMARKSYMBOL_13
 70
     0
 10
0.0
 20
0.0
 30
0.0
  3
SW_CENTERMARKSYMBOL_13
  1
SW_CENTERMARKSYMBOL_13
  0
LINE
  5
2EB
330
2E9
100
AcDbEntity
  8
0
  6
Continuous
 62
     0
370
     0
100
AcDbLine
 10
0.0
 20
0.0
 30
0.0
 11
0.0
 21
1.250000000000001
 31
0.0
  0
LINE
  5
2EC
330
2E9
100
AcDbEntity
  8
0
  6
Continuous
 62
     0
370
     0
100
AcDbLine
 10
0.0
 20
0.0
 30
0.0
 11
-1.250000000000001
 21
0.0
 31
0.0
  0
LINE
  5
2ED
330
2E9
100
AcDbEntity
  8
0
  6
Continuous
 62
     0
370
     0
100
AcDbLine
 10
0.0
 20
0.0
 30
0.0
 11
0.0
 21
-1.250000000000001
 31
0.0
  0
LINE
  5
2EE
330
2E9
100
AcDbEntity
  8
0
  6
Continuous
 62
     0
370
     0
100
AcDbLine
 10
0.0
 20
0.0
 30
0.0
 11
1.250000000000001
 21
0.0
 31
0.0
  0
LINE
  5
2EF
330
2E9
100
AcDbEntity
  8
0
  6
Continuous
 62
     0
370
     0
100
AcDbLine
 10
0.0
 20
1.250000000000001
 30
0.0
 11
0.0
 21
1.874999999999988
 31
0.0
  0
LINE
  5
2F0
330
2E9
100
AcDbEntity
  8
0
  6
Continuous
 62
     0
370
     0
100
AcDbLine
 10
-1.250000000000001
 20
0.0
 30
0.0
 11
-1.874999999999988
 21
0.0
 31
0.0
  0
LINE
  5
2F1
330
2E9
100
AcDbEntity
  8
0
  6
Continuous
 62
     0
370
     0
100
AcDbLine
 10
0.0
 20
-1.250000000000001
 30
0.0
 11
0.0
 21
-1.874999999999988
 31
0.0
  0
LINE
  5
2F2
330
2E9
100
AcDbEntity
  8
0
  6
Continuous
 62
     0
370
     0
100
AcDbLine
 10
1.250000000000001
 20
0.0
 30
0.0
 11
1.874999999999988
 21
0.0
 31
0.0
  0
ENDBLK
  5
2F3
330
2E9
100
AcDbEntity
  8
0
100
AcDbBlockEnd
  0
BLOCK
  5
2F6
330
2F5
100
AcDbEntity
  8
0
100
AcDbBlockBegin
  2
SW_CENTERMARKSYMBOL_14
 70
     0
 10
0.0
 20
0.0
 30
0.0
  3
SW_CENTERMARKSYMBOL_14
  1
SW_CENTERMARKSYMBOL_14
  0
LINE
  5
2F7
330
2F5
100
AcDbEntity
  8
0
  6
Continuous
 62
     0
370
     0
100
AcDbLine
 10
0.0
 20
0.0
 30
0.0
 11
0.0
 21
1.250000000000001
 31
0.0
  0
LINE
  5
2F8
330
2F5
100
AcDbEntity
  8
0
  6
Continuous
 62
     0
370
     0
100
AcDbLine
 10
0.0
 20
0.0
 30
0.0
 11
-1.250000000000001
 21
0.0
 31
0.0
  0
LINE
  5
2F9
330
2F5
100
AcDbEntity
  8
0
  6
Continuous
 62
     0
370
     0
100
AcDbLine
 10
0.0
 20
0.0
 30
0.0
 11
0.0
 21
-1.250000000000001
 31
0.0
  0
LINE
  5
2FA
330
2F5
100
AcDbEntity
  8
0
  6
Continuous
 62
     0
370
     0
100
AcDbLine
 10
0.0
 20
0.0
 30
0.0
 11
1.250000000000001
 21
0.0
 31
0.0
  0
LINE
  5
2FB
330
2F5
100
AcDbEntity
  8
0
  6
Continuous
 62
     0
370
     0
100
AcDbLine
 10
0.0
 20
1.250000000000001
 30
0.0
 11
0.0
 21
1.874999999999988
 31
0.0
  0
LINE
  5
2FC
330
2F5
100
AcDbEntity
  8
0
  6
Continuous
 62
     0
370
     0
100
AcDbLine
 10
-1.250000000000001
 20
0.0
 30
0.0
 11
-1.874999999999988
 21
0.0
 31
0.0
  0
LINE
  5
2FD
330
2F5
100
AcDbEntity
  8
0
  6
Continuous
 62
     0
370
     0
100
AcDbLine
 10
0.0
 20
-1.250000000000001
 30
0.0
 11
0.0
 21
-1.874999999999988
 31
0.0
  0
LINE
  5
2FE
330
2F5
100
AcDbEntity
  8
0
  6
Continuous
 62
     0
370
     0
100
AcDbLine
 10
1.250000000000001
 20
0.0
 30
0.0
 11
1.874999999999988
 21
0.0
 31
0.0
  0
ENDBLK
  5
2FF
330
2F5
100
AcDbEntity
  8
0
100
AcDbBlockEnd
  0
BLOCK
  5
302
330
301
100
AcDbEntity
  8
0
100
AcDbBlockBegin
  2
SW_CENTERMARKSYMBOL_15
 70
     0
 10
0.0
 20
0.0
 30
0.0
  3
SW_CENTERMARKSYMBOL_15
  1
SW_CENTERMARKSYMBOL_15
  0
LINE
  5
303
330
301
100
AcDbEntity
  8
0
  6
Continuous
 62
     0
370
     0
100
AcDbLine
 10
0.0
 20
0.0
 30
0.0
 11
0.0
 21
1.250000000000001
 31
0.0
  0
LINE
  5
304
330
301
100
AcDbEntity
  8
0
  6
Continuous
 62
     0
370
     0
100
AcDbLine
 10
0.0
 20
0.0
 30
0.0
 11
-1.250000000000001
 21
0.0
 31
0.0
  0
LINE
  5
305
330
301
100
AcDbEntity
  8
0
  6
Continuous
 62
     0
370
     0
100
AcDbLine
 10
0.0
 20
0.0
 30
0.0
 11
0.0
 21
-1.250000000000001
 31
0.0
  0
LINE
  5
306
330
301
100
AcDbEntity
  8
0
  6
Continuous
 62
     0
370
     0
100
AcDbLine
 10
0.0
 20
0.0
 30
0.0
 11
1.250000000000001
 21
0.0
 31
0.0
  0
LINE
  5
307
330
301
100
AcDbEntity
  8
0
  6
Continuous
 62
     0
370
     0
100
AcDbLine
 10
0.0
 20
1.250000000000001
 30
0.0
 11
0.0
 21
1.874999999999988
 31
0.0
  0
LINE
  5
308
330
301
100
AcDbEntity
  8
0
  6
Continuous
 62
     0
370
     0
100
AcDbLine
 10
-1.250000000000001
 20
0.0
 30
0.0
 11
-1.874999999999988
 21
0.0
 31
0.0
  0
LINE
  5
309
330
301
100
AcDbEntity
  8
0
  6
Continuous
 62
     0
370
     0
100
AcDbLine
 10
0.0
 20
-1.250000000000001
 30
0.0
 11
0.0
 21
-1.874999999999988
 31
0.0
  0
LINE
  5
30A
330
301
100
AcDbEntity
  8
0
  6
Continuous
 62
     0
370
     0
100
AcDbLine
 10
1.250000000000001
 20
0.0
 30
0.0
 11
1.874999999999988
 21
0.0
 31
0.0
  0
ENDBLK
  5
30B
330
301
100
AcDbEntity
  8
0
100
AcDbBlockEnd
  0
BLOCK
  5
30E
330
30D
100
AcDbEntity
  8
0
100
AcDbBlockBegin
  2
SW_CENTERMARKSYMBOL_16
 70
     0
 10
0.0
 20
0.0
 30
0.0
  3
SW_CENTERMARKSYMBOL_16
  1
SW_CENTERMARKSYMBOL_16
  0
LINE
  5
30F
330
30D
100
AcDbEntity
  8
0
  6
Continuous
 62
     0
370
     0
100
AcDbLine
 10
0.0
 20
0.0
 30
0.0
 11
0.0
 21
1.250000000000001
 31
0.0
  0
LINE
  5
310
330
30D
100
AcDbEntity
  8
0
  6
Continuous
 62
     0
370
     0
100
AcDbLine
 10
0.0
 20
0.0
 30
0.0
 11
-1.250000000000001
 21
0.0
 31
0.0
  0
LINE
  5
311
330
30D
100
AcDbEntity
  8
0
  6
Continuous
 62
     0
370
     0
100
AcDbLine
 10
0.0
 20
0.0
 30
0.0
 11
0.0
 21
-1.250000000000001
 31
0.0
  0
LINE
  5
312
330
30D
100
AcDbEntity
  8
0
  6
Continuous
 62
     0
370
     0
100
AcDbLine
 10
0.0
 20
0.0
 30
0.0
 11
1.250000000000001
 21
0.0
 31
0.0
  0
LINE
  5
313
330
30D
100
AcDbEntity
  8
0
  6
Continuous
 62
     0
370
     0
100
AcDbLine
 10
0.0
 20
1.250000000000001
 30
0.0
 11
0.0
 21
1.874999999999988
 31
0.0
  0
LINE
  5
314
330
30D
100
AcDbEntity
  8
0
  6
Continuous
 62
     0
370
     0
100
AcDbLine
 10
-1.250000000000001
 20
0.0
 30
0.0
 11
-1.874999999999988
 21
0.0
 31
0.0
  0
LINE
  5
315
330
30D
100
AcDbEntity
  8
0
  6
Continuous
 62
     0
370
     0
100
AcDbLine
 10
0.0
 20
-1.250000000000001
 30
0.0
 11
0.0
 21
-1.874999999999988
 31
0.0
  0
LINE
  5
316
330
30D
100
AcDbEntity
  8
0
  6
Continuous
 62
     0
370
     0
100
AcDbLine
 10
1.250000000000001
 20
0.0
 30
0.0
 11
1.874999999999988
 21
0.0
 31
0.0
  0
ENDBLK
  5
317
330
30D
100
AcDbEntity
  8
0
100
AcDbBlockEnd
  0
BLOCK
  5
31A
330
319
100
AcDbEntity
  8
0
100
AcDbBlockBegin
  2
SW_CENTERMARKSYMBOL_17
 70
     0
 10
0.0
 20
0.0
 30
0.0
  3
SW_CENTERMARKSYMBOL_17
  1
SW_CENTERMARKSYMBOL_17
  0
LINE
  5
31B
330
319
100
AcDbEntity
  8
0
  6
Continuous
 62
     0
370
     0
100
AcDbLine
 10
0.0
 20
0.0
 30
0.0
 11
0.0
 21
1.250000000000001
 31
0.0
  0
LINE
  5
31C
330
319
100
AcDbEntity
  8
0
  6
Continuous
 62
     0
370
     0
100
AcDbLine
 10
0.0
 20
0.0
 30
0.0
 11
-1.250000000000001
 21
0.0
 31
0.0
  0
LINE
  5
31D
330
319
100
AcDbEntity
  8
0
  6
Continuous
 62
     0
370
     0
100
AcDbLine
 10
0.0
 20
0.0
 30
0.0
 11
0.0
 21
-1.250000000000001
 31
0.0
  0
LINE
  5
31E
330
319
100
AcDbEntity
  8
0
  6
Continuous
 62
     0
370
     0
100
AcDbLine
 10
0.0
 20
0.0
 30
0.0
 11
1.250000000000001
 21
0.0
 31
0.0
  0
LINE
  5
31F
330
319
100
AcDbEntity
  8
0
  6
Continuous
 62
     0
370
     0
100
AcDbLine
 10
0.0
 20
1.250000000000001
 30
0.0
 11
0.0
 21
1.874999999999988
 31
0.0
  0
LINE
  5
320
330
319
100
AcDbEntity
  8
0
  6
Continuous
 62
     0
370
     0
100
AcDbLine
 10
-1.250000000000001
 20
0.0
 30
0.0
 11
-1.874999999999988
 21
0.0
 31
0.0
  0
LINE
  5
321
330
319
100
AcDbEntity
  8
0
  6
Continuous
 62
     0
370
     0
100
AcDbLine
 10
0.0
 20
-1.250000000000001
 30
0.0
 11
0.0
 21
-1.874999999999988
 31
0.0
  0
LINE
  5
322
330
319
100
AcDbEntity
  8
0
  6
Continuous
 62
     0
370
     0
100
AcDbLine
 10
1.250000000000001
 20
0.0
 30
0.0
 11
1.874999999999988
 21
0.0
 31
0.0
  0
ENDBLK
  5
323
330
319
100
AcDbEntity
  8
0
100
AcDbBlockEnd
  0
BLOCK
  5
326
330
325
100
AcDbEntity
  8
0
100
AcDbBlockBegin
  2
SW_CENTERMARKSYMBOL_18
 70
     0
 10
0.0
 20
0.0
 30
0.0
  3
SW_CENTERMARKSYMBOL_18
  1
SW_CENTERMARKSYMBOL_18
  0
LINE
  5
327
330
325
100
AcDbEntity
  8
0
  6
Continuous
 62
     0
370
     0
100
AcDbLine
 10
0.0
 20
0.0
 30
0.0
 11
0.0
 21
1.250000000000001
 31
0.0
  0
LINE
  5
328
330
325
100
AcDbEntity
  8
0
  6
Continuous
 62
     0
370
     0
100
AcDbLine
 10
0.0
 20
0.0
 30
0.0
 11
-1.250000000000001
 21
0.0
 31
0.0
  0
LINE
  5
329
330
325
100
AcDbEntity
  8
0
  6
Continuous
 62
     0
370
     0
100
AcDbLine
 10
0.0
 20
0.0
 30
0.0
 11
0.0
 21
-1.250000000000001
 31
0.0
  0
LINE
  5
32A
330
325
100
AcDbEntity
  8
0
  6
Continuous
 62
     0
370
     0
100
AcDbLine
 10
0.0
 20
0.0
 30
0.0
 11
1.250000000000001
 21
0.0
 31
0.0
  0
LINE
  5
32B
330
325
100
AcDbEntity
  8
0
  6
Continuous
 62
     0
370
     0
100
AcDbLine
 10
0.0
 20
1.250000000000001
 30
0.0
 11
0.0
 21
1.874999999999988
 31
0.0
  0
LINE
  5
32C
330
325
100
AcDbEntity
  8
0
  6
Continuous
 62
     0
370
     0
100
AcDbLine
 10
-1.250000000000001
 20
0.0
 30
0.0
 11
-1.874999999999988
 21
0.0
 31
0.0
  0
LINE
  5
32D
330
325
100
AcDbEntity
  8
0
  6
Continuous
 62
     0
370
     0
100
AcDbLine
 10
0.0
 20
-1.250000000000001
 30
0.0
 11
0.0
 21
-1.874999999999988
 31
0.0
  0
LINE
  5
32E
330
325
100
AcDbEntity
  8
0
  6
Continuous
 62
     0
370
     0
100
AcDbLine
 10
1.250000000000001
 20
0.0
 30
0.0
 11
1.874999999999988
 21
0.0
 31
0.0
  0
ENDBLK
  5
32F
330
325
100
AcDbEntity
  8
0
100
AcDbBlockEnd
  0
BLOCK
  5
332
330
331
100
AcDbEntity
  8
0
100
AcDbBlockBegin
  2
SW_CENTERMARKSYMBOL_19
 70
     0
 10
0.0
 20
0.0
 30
0.0
  3
SW_CENTERMARKSYMBOL_19
  1
SW_CENTERMARKSYMBOL_19
  0
LINE
  5
333
330
331
100
AcDbEntity
  8
0
  6
Continuous
 62
     0
370
     0
100
AcDbLine
 10
0.0
 20
0.0
 30
0.0
 11
0.0
 21
1.250000000000029
 31
0.0
  0
LINE
  5
334
330
331
100
AcDbEntity
  8
0
  6
Continuous
 62
     0
370
     0
100
AcDbLine
 10
0.0
 20
0.0
 30
0.0
 11
-1.250000000000001
 21
0.0
 31
0.0
  0
LINE
  5
335
330
331
100
AcDbEntity
  8
0
  6
Continuous
 62
     0
370
     0
100
AcDbLine
 10
0.0
 20
0.0
 30
0.0
 11
0.0
 21
-1.249999999999973
 31
0.0
  0
LINE
  5
336
330
331
100
AcDbEntity
  8
0
  6
Continuous
 62
     0
370
     0
100
AcDbLine
 10
0.0
 20
0.0
 30
0.0
 11
1.250000000000001
 21
0.0
 31
0.0
  0
LINE
  5
337
330
331
100
AcDbEntity
  8
0
  6
Continuous
 62
     0
370
     0
100
AcDbLine
 10
0.0
 20
1.250000000000029
 30
0.0
 11
0.0
 21
1.874999999994187
 31
0.0
  0
LINE
  5
338
330
331
100
AcDbEntity
  8
0
  6
Continuous
 62
     0
370
     0
100
AcDbLine
 10
-1.250000000000001
 20
0.0
 30
0.0
 11
-1.874999999994173
 21
0.0
 31
0.0
  0
LINE
  5
339
330
331
100
AcDbEntity
  8
0
  6
Continuous
 62
     0
370
     0
100
AcDbLine
 10
0.0
 20
-1.249999999999973
 30
0.0
 11
0.0
 21
-1.874999999994159
 31
0.0
  0
LINE
  5
33A
330
331
100
AcDbEntity
  8
0
  6
Continuous
 62
     0
370
     0
100
AcDbLine
 10
1.250000000000001
 20
0.0
 30
0.0
 11
1.874999999994159
 21
0.0
 31
0.0
  0
ENDBLK
  5
33B
330
331
100
AcDbEntity
  8
0
100
AcDbBlockEnd
  0
BLOCK
  5
33E
330
33D
100
AcDbEntity
  8
0
100
AcDbBlockBegin
  2
SW_CENTERMARKSYMBOL_20
 70
     0
 10
0.0
 20
0.0
 30
0.0
  3
SW_CENTERMARKSYMBOL_20
  1
SW_CENTERMARKSYMBOL_20
  0
LINE
  5
33F
330
33D
100
AcDbEntity
  8
0
  6
Continuous
 62
     0
370
     0
100
AcDbLine
 10
0.0
 20
0.0
 30
0.0
 11
0.0
 21
1.250000000000001
 31
0.0
  0
LINE
  5
340
330
33D
100
AcDbEntity
  8
0
  6
Continuous
 62
     0
370
     0
100
AcDbLine
 10
0.0
 20
0.0
 30
0.0
 11
-1.250000000000001
 21
0.0
 31
0.0
  0
LINE
  5
341
330
33D
100
AcDbEntity
  8
0
  6
Continuous
 62
     0
370
     0
100
AcDbLine
 10
0.0
 20
0.0
 30
0.0
 11
0.0
 21
-1.250000000000001
 31
0.0
  0
LINE
  5
342
330
33D
100
AcDbEntity
  8
0
  6
Continuous
 62
     0
370
     0
100
AcDbLine
 10
0.0
 20
0.0
 30
0.0
 11
1.250000000000001
 21
0.0
 31
0.0
  0
LINE
  5
343
330
33D
100
AcDbEntity
  8
0
  6
Continuous
 62
     0
370
     0
100
AcDbLine
 10
0.0
 20
1.250000000000001
 30
0.0
 11
0.0
 21
1.875000000000002
 31
0.0
  0
LINE
  5
344
330
33D
100
AcDbEntity
  8
0
  6
Continuous
 62
     0
370
     0
100
AcDbLine
 10
-1.250000000000001
 20
0.0
 30
0.0
 11
-1.875000000000002
 21
0.0
 31
0.0
  0
LINE
  5
345
330
33D
100
AcDbEntity
  8
0
  6
Continuous
 62
     0
370
     0
100
AcDbLine
 10
0.0
 20
-1.250000000000001
 30
0.0
 11
0.0
 21
-1.875000000000002
 31
0.0
  0
LINE
  5
346
330
33D
100
AcDbEntity
  8
0
  6
Continuous
 62
     0
370
     0
100
AcDbLine
 10
1.250000000000001
 20
0.0
 30
0.0
 11
1.875000000000002
 21
0.0
 31
0.0
  0
ENDBLK
  5
347
330
33D
100
AcDbEntity
  8
0
100
AcDbBlockEnd
  0
BLOCK
  5
34A
330
349
100
AcDbEntity
  8
0
100
AcDbBlockBegin
  2
SW_CENTERMARKSYMBOL_21
 70
     0
 10
0.0
 20
0.0
 30
0.0
  3
SW_CENTERMARKSYMBOL_21
  1
SW_CENTERMARKSYMBOL_21
  0
LINE
  5
34B
330
349
100
AcDbEntity
  8
0
  6
Continuous
 62
     0
370
     0
100
AcDbLine
 10
0.0
 20
0.0
 30
0.0
 11
0.0
 21
1.250000000000001
 31
0.0
  0
LINE
  5
34C
330
349
100
AcDbEntity
  8
0
  6
Continuous
 62
     0
370
     0
100
AcDbLine
 10
0.0
 20
0.0
 30
0.0
 11
-1.250000000000001
 21
0.0
 31
0.0
  0
LINE
  5
34D
330
349
100
AcDbEntity
  8
0
  6
Continuous
 62
     0
370
     0
100
AcDbLine
 10
0.0
 20
0.0
 30
0.0
 11
0.0
 21
-1.250000000000001
 31
0.0
  0
LINE
  5
34E
330
349
100
AcDbEntity
  8
0
  6
Continuous
 62
     0
370
     0
100
AcDbLine
 10
0.0
 20
0.0
 30
0.0
 11
1.250000000000001
 21
0.0
 31
0.0
  0
LINE
  5
34F
330
349
100
AcDbEntity
  8
0
  6
Continuous
 62
     0
370
     0
100
AcDbLine
 10
0.0
 20
1.250000000000001
 30
0.0
 11
0.0
 21
1.874999999994215
 31
0.0
  0
LINE
  5
350
330
349
100
AcDbEntity
  8
0
  6
Continuous
 62
     0
370
     0
100
AcDbLine
 10
-1.250000000000001
 20
0.0
 30
0.0
 11
-1.874999999994201
 21
0.0
 31
0.0
  0
LINE
  5
351
330
349
100
AcDbEntity
  8
0
  6
Continuous
 62
     0
370
     0
100
AcDbLine
 10
0.0
 20
-1.250000000000001
 30
0.0
 11
0.0
 21
-1.874999999994187
 31
0.0
  0
LINE
  5
352
330
349
100
AcDbEntity
  8
0
  6
Continuous
 62
     0
370
     0
100
AcDbLine
 10
1.250000000000001
 20
0.0
 30
0.0
 11
1.874999999994201
 21
0.0
 31
0.0
  0
ENDBLK
  5
353
330
349
100
AcDbEntity
  8
0
100
AcDbBlockEnd
  0
BLOCK
  5
356
330
355
100
AcDbEntity
  8
0
100
AcDbBlockBegin
  2
SW_CENTERMARKSYMBOL_22
 70
     0
 10
0.0
 20
0.0
 30
0.0
  3
SW_CENTERMARKSYMBOL_22
  1
SW_CENTERMARKSYMBOL_22
  0
LINE
  5
357
330
355
100
AcDbEntity
  8
0
  6
Continuous
 62
     0
370
     0
100
AcDbLine
 10
0.0
 20
0.0
 30
0.0
 11
0.0
 21
1.250000000000001
 31
0.0
  0
LINE
  5
358
330
355
100
AcDbEntity
  8
0
  6
Continuous
 62
     0
370
     0
100
AcDbLine
 10
0.0
 20
0.0
 30
0.0
 11
-1.250000000000001
 21
0.0
 31
0.0
  0
LINE
  5
359
330
355
100
AcDbEntity
  8
0
  6
Continuous
 62
     0
370
     0
100
AcDbLine
 10
0.0
 20
0.0
 30
0.0
 11
0.0
 21
-1.250000000000001
 31
0.0
  0
LINE
  5
35A
330
355
100
AcDbEntity
  8
0
  6
Continuous
 62
     0
370
     0
100
AcDbLine
 10
0.0
 20
0.0
 30
0.0
 11
1.250000000000001
 21
0.0
 31
0.0
  0
LINE
  5
35B
330
355
100
AcDbEntity
  8
0
  6
Continuous
 62
     0
370
     0
100
AcDbLine
 10
0.0
 20
1.250000000000001
 30
0.0
 11
0.0
 21
1.875000000000016
 31
0.0
  0
LINE
  5
35C
330
355
100
AcDbEntity
  8
0
  6
Continuous
 62
     0
370
     0
100
AcDbLine
 10
-1.250000000000001
 20
0.0
 30
0.0
 11
-1.875000000000002
 21
0.0
 31
0.0
  0
LINE
  5
35D
330
355
100
AcDbEntity
  8
0
  6
Continuous
 62
     0
370
     0
100
AcDbLine
 10
0.0
 20
-1.250000000000001
 30
0.0
 11
0.0
 21
-1.874999999999988
 31
0.0
  0
LINE
  5
35E
330
355
100
AcDbEntity
  8
0
  6
Continuous
 62
     0
370
     0
100
AcDbLine
 10
1.250000000000001
 20
0.0
 30
0.0
 11
1.875000000000002
 21
0.0
 31
0.0
  0
ENDBLK
  5
35F
330
355
100
AcDbEntity
  8
0
100
AcDbBlockEnd
  0
BLOCK
  5
362
330
361
100
AcDbEntity
  8
0
100
AcDbBlockBegin
  2
SW_CENTERMARKSYMBOL_23
 70
     0
 10
0.0
 20
0.0
 30
0.0
  3
SW_CENTERMARKSYMBOL_23
  1
SW_CENTERMARKSYMBOL_23
  0
LINE
  5
363
330
361
100
AcDbEntity
  8
0
  6
Continuous
 62
     0
370
     0
100
AcDbLine
 10
0.0
 20
0.0
 30
0.0
 11
0.0
 21
1.250000000000001
 31
0.0
  0
LINE
  5
364
330
361
100
AcDbEntity
  8
0
  6
Continuous
 62
     0
370
     0
100
AcDbLine
 10
0.0
 20
0.0
 30
0.0
 11
-1.250000000000001
 21
0.0
 31
0.0
  0
LINE
  5
365
330
361
100
AcDbEntity
  8
0
  6
Continuous
 62
     0
370
     0
100
AcDbLine
 10
0.0
 20
0.0
 30
0.0
 11
0.0
 21
-1.250000000000001
 31
0.0
  0
LINE
  5
366
330
361
100
AcDbEntity
  8
0
  6
Continuous
 62
     0
370
     0
100
AcDbLine
 10
0.0
 20
0.0
 30
0.0
 11
1.250000000000001
 21
0.0
 31
0.0
  0
LINE
  5
367
330
361
100
AcDbEntity
  8
0
  6
Continuous
 62
     0
370
     0
100
AcDbLine
 10
0.0
 20
1.250000000000001
 30
0.0
 11
0.0
 21
1.874999999999988
 31
0.0
  0
LINE
  5
368
330
361
100
AcDbEntity
  8
0
  6
Continuous
 62
     0
370
     0
100
AcDbLine
 10
-1.250000000000001
 20
0.0
 30
0.0
 11
-1.875000000000002
 21
0.0
 31
0.0
  0
LINE
  5
369
330
361
100
AcDbEntity
  8
0
  6
Continuous
 62
     0
370
     0
100
AcDbLine
 10
0.0
 20
-1.250000000000001
 30
0.0
 11
0.0
 21
-1.875000000000016
 31
0.0
  0
LINE
  5
36A
330
361
100
AcDbEntity
  8
0
  6
Continuous
 62
     0
370
     0
100
AcDbLine
 10
1.250000000000001
 20
0.0
 30
0.0
 11
1.875000000000002
 21
0.0
 31
0.0
  0
ENDBLK
  5
36B
330
361
100
AcDbEntity
  8
0
100
AcDbBlockEnd
  0
BLOCK
  5
36E
330
36D
100
AcDbEntity
  8
0
100
AcDbBlockBegin
  2
SW_CENTERMARKSYMBOL_24
 70
     0
 10
0.0
 20
0.0
 30
0.0
  3
SW_CENTERMARKSYMBOL_24
  1
SW_CENTERMARKSYMBOL_24
  0
LINE
  5
36F
330
36D
100
AcDbEntity
  8
0
  6
Continuous
 62
     0
370
     0
100
AcDbLine
 10
0.0
 20
0.0
 30
0.0
 11
0.0
 21
1.249999999999987
 31
0.0
  0
LINE
  5
370
330
36D
100
AcDbEntity
  8
0
  6
Continuous
 62
     0
370
     0
100
AcDbLine
 10
0.0
 20
0.0
 30
0.0
 11
-1.250000000000001
 21
0.0
 31
0.0
  0
LINE
  5
371
330
36D
100
AcDbEntity
  8
0
  6
Continuous
 62
     0
370
     0
100
AcDbLine
 10
0.0
 20
0.0
 30
0.0
 11
0.0
 21
-1.250000000000001
 31
0.0
  0
LINE
  5
372
330
36D
100
AcDbEntity
  8
0
  6
Continuous
 62
     0
370
     0
100
AcDbLine
 10
0.0
 20
0.0
 30
0.0
 11
1.250000000000001
 21
0.0
 31
0.0
  0
LINE
  5
373
330
36D
100
AcDbEntity
  8
0
  6
Continuous
 62
     0
370
     0
100
AcDbLine
 10
0.0
 20
1.249999999999987
 30
0.0
 11
0.0
 21
1.87500000000583
 31
0.0
  0
LINE
  5
374
330
36D
100
AcDbEntity
  8
0
  6
Continuous
 62
     0
370
     0
100
AcDbLine
 10
-1.250000000000001
 20
0.0
 30
0.0
 11
-1.875000000005844
 21
0.0
 31
0.0
  0
LINE
  5
375
330
36D
100
AcDbEntity
  8
0
  6
Continuous
 62
     0
370
     0
100
AcDbLine
 10
0.0
 20
-1.250000000000001
 30
0.0
 11
0.0
 21
-1.875000000005844
 31
0.0
  0
LINE
  5
376
330
36D
100
AcDbEntity
  8
0
  6
Continuous
 62
     0
370
     0
100
AcDbLine
 10
1.250000000000001
 20
0.0
 30
0.0
 11
1.87500000000583
 21
0.0
 31
0.0
  0
ENDBLK
  5
377
330
36D
100
AcDbEntity
  8
0
100
AcDbBlockEnd
  0
BLOCK
  5
37A
330
379
100
AcDbEntity
  8
0
100
AcDbBlockBegin
  2
SW_CENTERMARKSYMBOL_25
 70
     0
 10
0.0
 20
0.0
 30
0.0
  3
SW_CENTERMARKSYMBOL_25
  1
SW_CENTERMARKSYMBOL_25
  0
LINE
  5
37B
330
379
100
AcDbEntity
  8
0
  6
Continuous
 62
     0
370
     0
100
AcDbLine
 10
0.0
 20
0.0
 30
0.0
 11
0.0
 21
1.250000000000001
 31
0.0
  0
LINE
  5
37C
330
379
100
AcDbEntity
  8
0
  6
Continuous
 62
     0
370
     0
100
AcDbLine
 10
0.0
 20
0.0
 30
0.0
 11
-1.249999999999987
 21
0.0
 31
0.0
  0
LINE
  5
37D
330
379
100
AcDbEntity
  8
0
  6
Continuous
 62
     0
370
     0
100
AcDbLine
 10
0.0
 20
0.0
 30
0.0
 11
0.0
 21
-1.250000000000001
 31
0.0
  0
LINE
  5
37E
330
379
100
AcDbEntity
  8
0
  6
Continuous
 62
     0
370
     0
100
AcDbLine
 10
0.0
 20
0.0
 30
0.0
 11
1.250000000000001
 21
0.0
 31
0.0
  0
LINE
  5
37F
330
379
100
AcDbEntity
  8
0
  6
Continuous
 62
     0
370
     0
100
AcDbLine
 10
0.0
 20
1.250000000000001
 30
0.0
 11
0.0
 21
1.874999999998794
 31
0.0
  0
LINE
  5
380
330
379
100
AcDbEntity
  8
0
  6
Continuous
 62
     0
370
     0
100
AcDbLine
 10
-1.249999999999987
 20
0.0
 30
0.0
 11
-1.874999999998781
 21
0.0
 31
0.0
  0
LINE
  5
381
330
379
100
AcDbEntity
  8
0
  6
Continuous
 62
     0
370
     0
100
AcDbLine
 10
0.0
 20
-1.250000000000001
 30
0.0
 11
0.0
 21
-1.874999999998794
 31
0.0
  0
LINE
  5
382
330
379
100
AcDbEntity
  8
0
  6
Continuous
 62
     0
370
     0
100
AcDbLine
 10
1.250000000000001
 20
0.0
 30
0.0
 11
1.874999999998794
 21
0.0
 31
0.0
  0
ENDBLK
  5
383
330
379
100
AcDbEntity
  8
0
100
AcDbBlockEnd
  0
BLOCK
  5
386
330
385
100
AcDbEntity
  8
0
100
AcDbBlockBegin
  2
SW_CENTERMARKSYMBOL_26
 70
     0
 10
0.0
 20
0.0
 30
0.0
  3
SW_CENTERMARKSYMBOL_26
  1
SW_CENTERMARKSYMBOL_26
  0
LINE
  5
387
330
385
100
AcDbEntity
  8
0
  6
Continuous
 62
     0
370
     0
100
AcDbLine
 10
0.0
 20
0.0
 30
0.0
 11
0.0
 21
1.250000000000001
 31
0.0
  0
LINE
  5
388
330
385
100
AcDbEntity
  8
0
  6
Continuous
 62
     0
370
     0
100
AcDbLine
 10
0.0
 20
0.0
 30
0.0
 11
-1.250000000000001
 21
0.0
 31
0.0
  0
LINE
  5
389
330
385
100
AcDbEntity
  8
0
  6
Continuous
 62
     0
370
     0
100
AcDbLine
 10
0.0
 20
0.0
 30
0.0
 11
0.0
 21
-1.250000000000001
 31
0.0
  0
LINE
  5
38A
330
385
100
AcDbEntity
  8
0
  6
Continuous
 62
     0
370
     0
100
AcDbLine
 10
0.0
 20
0.0
 30
0.0
 11
1.250000000000001
 21
0.0
 31
0.0
  0
LINE
  5
38B
330
385
100
AcDbEntity
  8
0
  6
Continuous
 62
     0
370
     0
100
AcDbLine
 10
0.0
 20
1.250000000000001
 30
0.0
 11
0.0
 21
1.874999999998753
 31
0.0
  0
LINE
  5
38C
330
385
100
AcDbEntity
  8
0
  6
Continuous
 62
     0
370
     0
100
AcDbLine
 10
-1.250000000000001
 20
0.0
 30
0.0
 11
-1.874999999998753
 21
0.0
 31
0.0
  0
LINE
  5
38D
330
385
100
AcDbEntity
  8
0
  6
Continuous
 62
     0
370
     0
100
AcDbLine
 10
0.0
 20
-1.250000000000001
 30
0.0
 11
0.0
 21
-1.874999999998739
 31
0.0
  0
LINE
  5
38E
330
385
100
AcDbEntity
  8
0
  6
Continuous
 62
     0
370
     0
100
AcDbLine
 10
1.250000000000001
 20
0.0
 30
0.0
 11
1.874999999998753
 21
0.0
 31
0.0
  0
ENDBLK
  5
38F
330
385
100
AcDbEntity
  8
0
100
AcDbBlockEnd
  0
BLOCK
  5
392
330
391
100
AcDbEntity
  8
0
100
AcDbBlockBegin
  2
SW_CENTERMARKSYMBOL_27
 70
     0
 10
0.0
 20
0.0
 30
0.0
  3
SW_CENTERMARKSYMBOL_27
  1
SW_CENTERMARKSYMBOL_27
  0
LINE
  5
393
330
391
100
AcDbEntity
  8
0
  6
Continuous
 62
     0
370
     0
100
AcDbLine
 10
0.0
 20
0.0
 30
0.0
 11
0.0
 21
1.250000000000001
 31
0.0
  0
LINE
  5
394
330
391
100
AcDbEntity
  8
0
  6
Continuous
 62
     0
370
     0
100
AcDbLine
 10
0.0
 20
0.0
 30
0.0
 11
-1.250000000000001
 21
0.0
 31
0.0
  0
LINE
  5
395
330
391
100
AcDbEntity
  8
0
  6
Continuous
 62
     0
370
     0
100
AcDbLine
 10
0.0
 20
0.0
 30
0.0
 11
0.0
 21
-1.250000000000001
 31
0.0
  0
LINE
  5
396
330
391
100
AcDbEntity
  8
0
  6
Continuous
 62
     0
370
     0
100
AcDbLine
 10
0.0
 20
0.0
 30
0.0
 11
1.250000000000001
 21
0.0
 31
0.0
  0
LINE
  5
397
330
391
100
AcDbEntity
  8
0
  6
Continuous
 62
     0
370
     0
100
AcDbLine
 10
0.0
 20
1.250000000000001
 30
0.0
 11
0.0
 21
1.875000000004623
 31
0.0
  0
LINE
  5
398
330
391
100
AcDbEntity
  8
0
  6
Continuous
 62
     0
370
     0
100
AcDbLine
 10
-1.250000000000001
 20
0.0
 30
0.0
 11
-1.875000000004623
 21
0.0
 31
0.0
  0
LINE
  5
399
330
391
100
AcDbEntity
  8
0
  6
Continuous
 62
     0
370
     0
100
AcDbLine
 10
0.0
 20
-1.250000000000001
 30
0.0
 11
0.0
 21
-1.875000000004623
 31
0.0
  0
LINE
  5
39A
330
391
100
AcDbEntity
  8
0
  6
Continuous
 62
     0
370
     0
100
AcDbLine
 10
1.250000000000001
 20
0.0
 30
0.0
 11
1.875000000004623
 21
0.0
 31
0.0
  0
ENDBLK
  5
39B
330
391
100
AcDbEntity
  8
0
100
AcDbBlockEnd
  0
ENDSEC
  0
SECTION
  2
ENTITIES
  0
CIRCLE
  5
1329
102
{ACAD_REACTORS
330
148F
102
}
330
1F
100
AcDbEntity
  8
0
  6
Continuous
 62
     7
370
    15
100
AcDbCircle
 10
693.6939332563112
 20
483.5404629071569
 30
0.0
 40
1.250000000009237
  0
CIRCLE
  5
132A
102
{ACAD_REACTORS
330
148F
102
}
330
1F
100
AcDbEntity
  8
0
  6
Continuous
 62
     7
370
    15
100
AcDbCircle
 10
714.5700745558621
 20
502.1288078999124
 30
0.0
 40
1.249999999997584
  0
CIRCLE
  5
132B
102
{ACAD_REACTORS
330
148F
102
}
330
1F
100
AcDbEntity
  8
0
  6
Continuous
 62
     7
370
    15
100
AcDbCircle
 10
717.695262429647
 20
556.0382987225204
 30
0.0
 40
1.25
  0
CIRCLE
  5
132C
102
{ACAD_REACTORS
330
148F
102
}
330
1F
100
AcDbEntity
  8
0
  6
Continuous
 62
     7
370
    15
100
AcDbCircle
 10
624.3212853147107
 20
561.4512829031092
 30
0.0
 40
1.249999999988404
  0
CIRCLE
  5
132D
102
{ACAD_REACTORS
330
148F
102
}
330
1F
100
AcDbEntity
  8
0
  6
Continuous
 62
     7
370
    15
100
AcDbCircle
 10
621.1960974409354
 20
507.5417920804936
 30
0.0
 40
1.249999999988318
  0
CIRCLE
  5
132E
102
{ACAD_REACTORS
330
148F
102
}
330
1F
100
AcDbEntity
  8
0
  6
Continuous
 62
     7
370
    15
100
AcDbCircle
 10
637.4825670790457
 20
552.8000886317988
 30
0.0
 40
1.249999999999971
  0
CIRCLE
  5
132F
102
{ACAD_REACTORS
330
148F
102
}
330
1F
100
AcDbEntity
  8
0
  6
Continuous
 62
     7
370
    15
100
AcDbCircle
 10
658.4655104143932
 20
568.4301651787679
 30
0.0
 40
1.249999999999971
  0
CIRCLE
  5
1330
102
{ACAD_REACTORS
330
148F
102
}
330
1F
100
AcDbEntity
  8
0
  6
Continuous
 62
     7
370
    15
100
AcDbCircle
 10
684.5861970995594
 20
566.9159224723804
 30
0.0
 40
1.25
  0
CIRCLE
  5
1331
102
{ACAD_REACTORS
330
148F
102
}
330
1F
100
AcDbEntity
  8
0
  6
Continuous
 62
     7
370
    15
100
AcDbCircle
 10
703.6224675354607
 20
548.9658915038896
 30
0.0
 40
1.249999999999971
  0
CIRCLE
  5
1332
102
{ACAD_REACTORS
330
148F
102
}
330
1F
100
AcDbEntity
  8
0
  6
Continuous
 62
     7
370
    15
100
AcDbCircle
 10
706.6670392205566
 20
522.9790912558261
 30
0.0
 40
1.249999999999971
  0
CIRCLE
  5
1333
102
{ACAD_REACTORS
330
148F
102
}
330
1F
100
AcDbEntity
  8
0
  6
Continuous
 62
     7
370
    15
100
AcDbCircle
 10
692.2953232267465
 20
501.1150343753708
 30
0.0
 40
1.249999999999971
  0
CIRCLE
  5
1334
102
{ACAD_REACTORS
330
148F
102
}
330
1F
100
AcDbEntity
  8
0
  6
Continuous
 62
     7
370
    15
100
AcDbCircle
 10
667.2320051913672
 20
493.6041560688146
 30
0.0
 40
1.249999999999971
  0
CIRCLE
  5
1335
102
{ACAD_REACTORS
330
148F
102
}
330
1F
100
AcDbEntity
  8
0
  6
Continuous
 62
     7
370
    15
100
AcDbCircle
 10
643.2044901709238
 20
503.9608797699112
 30
0.0
 40
1.249999999999971
  0
CIRCLE
  5
1336
102
{ACAD_REACTORS
330
148F
102
}
330
1F
100
AcDbEntity
  8
0
  6
Continuous
 62
     7
370
    15
100
AcDbCircle
 10
631.4555194795659
 20
527.3391793567531
 30
0.0
 40
1.249999999999971
  0
CIRCLE
  5
1337
102
{ACAD_REACTORS
330
148F
102
}
330
1F
100
AcDbEntity
  8
0
  6
Continuous
 62
     7
370
    15
100
AcDbCircle
 10
669.4456799352912
 20
531.7900454015013
 30
0.0
 40
59.99999999999999
  0
CIRCLE
  5
1338
102
{ACAD_REACTORS
330
148F
102
}
330
1F
100
AcDbEntity
  8
0
  6
Continuous
 62
     7
370
    15
100
AcDbCircle
 10
669.4456799352912
 20
531.7900454015013
 30
0.0
 40
25.0
  0
CIRCLE
  5
1339
102
{ACAD_REACTORS
330
148F
102
}
330
1F
100
AcDbEntity
  8
0
  6
Continuous
 62
     7
370
    15
100
AcDbCircle
 10
635.2688923351217
 20
514.6141992991148
 30
0.0
 40
1.249999999999971
  0
CIRCLE
  5
133A
102
{ACAD_REACTORS
330
148F
102
}
330
1F
100
AcDbEntity
  8
0
  6
Continuous
 62
     7
370
    15
100
AcDbCircle
 10
654.3051627710216
 20
496.6641683306226
 30
0.0
 40
1.249999999999971
  0
CIRCLE
  5
133B
102
{ACAD_REACTORS
330
148F
102
}
330
1F
100
AcDbEntity
  8
0
  6
Continuous
 62
     7
370
    15
100
AcDbCircle
 10
680.4258494561888
 20
495.1499256242352
 30
0.0
 40
1.249999999999971
  0
CIRCLE
  5
133C
102
{ACAD_REACTORS
330
148F
102
}
330
1F
100
AcDbEntity
  8
0
  6
Continuous
 62
     7
370
    15
100
AcDbCircle
 10
701.4087927915363
 20
510.7800021712047
 30
0.0
 40
1.249999999999971
  0
CIRCLE
  5
133D
102
{ACAD_REACTORS
330
148F
102
}
330
1F
100
AcDbEntity
  8
0
  6
Continuous
 62
     7
370
    15
100
AcDbCircle
 10
707.4358403910152
 20
536.2409114462508
 30
0.0
 40
1.249999999999971
  0
CIRCLE
  5
133E
102
{ACAD_REACTORS
330
148F
102
}
330
1F
100
AcDbEntity
  8
0
  6
Continuous
 62
     7
370
    15
100
AcDbCircle
 10
695.6868696996581
 20
559.6192110330913
 30
0.0
 40
1.249999999999971
  0
CIRCLE
  5
133F
102
{ACAD_REACTORS
330
148F
102
}
330
1F
100
AcDbEntity
  8
0
  6
Continuous
 62
     7
370
    15
100
AcDbCircle
 10
671.6593546792147
 20
569.975934734187
 30
0.0
 40
1.249999999999971
  0
CIRCLE
  5
1340
102
{ACAD_REACTORS
330
148F
102
}
330
1F
100
AcDbEntity
  8
0
  6
Continuous
 62
     7
370
    15
100
AcDbCircle
 10
646.596036643835
 20
562.4650564276318
 30
0.0
 40
1.249999999999971
  0
CIRCLE
  5
1341
102
{ACAD_REACTORS
330
148F
102
}
330
1F
100
AcDbEntity
  8
0
  6
Continuous
 62
     7
370
    15
100
AcDbCircle
 10
632.2243206500253
 20
540.6009995471769
 30
0.0
 40
1.249999999999971
  0
CIRCLE
  5
1342
102
{ACAD_REACTORS
330
148F
102
}
330
1F
100
AcDbEntity
  8
0
  6
Continuous
 62
     7
370
    15
100
AcDbCircle
 10
672.570867809066
 20
585.6995362241165
 30
0.0
 40
1.25
  0
CIRCLE
  5
1343
102
{ACAD_REACTORS
330
148F
102
}
330
1F
100
AcDbEntity
  8
0
  6
Continuous
 62
     7
370
    15
100
AcDbCircle
 10
615.536189112676
 20
534.9152332752761
 30
0.0
 40
1.25
  0
CIRCLE
  5
1344
102
{ACAD_REACTORS
330
148F
102
}
330
1F
100
AcDbEntity
  8
0
  6
Continuous
 62
     7
370
    15
100
AcDbCircle
 10
699.1069174368764
 20
576.9144400220895
 30
0.0
 40
1.250000000011681
  0
CIRCLE
  5
1345
102
{ACAD_REACTORS
330
148F
102
}
330
1F
100
AcDbEntity
  8
0
  6
Continuous
 62
     7
370
    15
100
AcDbCircle
 10
666.3204920615059
 20
477.8805545788933
 30
0.0
 40
1.249999999997499
  0
CIRCLE
  5
1380
102
{ACAD_REACTORS
330
1490
102
}
330
1F
100
AcDbEntity
  8
0
  6
Continuous
 62
     7
370
    15
100
AcDbCircle
 10
918.2668146122431
 20
578.3991330505733
 30
0.0
 40
1.250000000009237
  0
CIRCLE
  5
1381
102
{ACAD_REACTORS
330
1490
102
}
330
1F
100
AcDbEntity
  8
0
  6
Continuous
 62
     7
370
    15
100
AcDbCircle
 10
939.142955911795
 20
596.9874780433279
 30
0.0
 40
1.249999999997584
  0
CIRCLE
  5
1382
102
{ACAD_REACTORS
330
1490
102
}
330
1F
100
AcDbEntity
  8
0
  6
Continuous
 62
     7
370
    15
100
AcDbCircle
 10
942.2681437855798
 20
650.8969688659363
 30
0.0
 40
1.25
  0
CIRCLE
  5
1383
102
{ACAD_REACTORS
330
1490
102
}
330
1F
100
AcDbEntity
  8
0
  6
Continuous
 62
     7
370
    15
100
AcDbCircle
 10
848.8941666706431
 20
656.3099530465252
 30
0.0
 40
1.249999999988404
  0
CIRCLE
  5
1384
102
{ACAD_REACTORS
330
1490
102
}
330
1F
100
AcDbEntity
  8
0
  6
Continuous
 62
     7
370
    15
100
AcDbCircle
 10
845.7689787968683
 20
602.4004622239095
 30
0.0
 40
1.249999999988318
  0
CIRCLE
  5
1385
102
{ACAD_REACTORS
330
1490
102
}
330
1F
100
AcDbEntity
  8
0
  6
Continuous
 62
     7
370
    15
100
AcDbCircle
 10
862.0554484349785
 20
647.6587587752142
 30
0.0
 40
1.249999999999971
  0
CIRCLE
  5
1386
102
{ACAD_REACTORS
330
1490
102
}
330
1F
100
AcDbEntity
  8
0
  6
Continuous
 62
     7
370
    15
100
AcDbCircle
 10
883.0383917703256
 20
663.2888353221833
 30
0.0
 40
1.249999999999971
  0
CIRCLE
  5
1387
102
{ACAD_REACTORS
330
1490
102
}
330
1F
100
AcDbEntity
  8
0
  6
Continuous
 62
     7
370
    15
100
AcDbCircle
 10
909.1590784554918
 20
661.7745926157963
 30
0.0
 40
1.25
  0
CIRCLE
  5
1388
102
{ACAD_REACTORS
330
1490
102
}
330
1F
100
AcDbEntity
  8
0
  6
Continuous
 62
     7
370
    15
100
AcDbCircle
 10
928.1953488913931
 20
643.824561647305
 30
0.0
 40
1.249999999999971
  0
CIRCLE
  5
1389
102
{ACAD_REACTORS
330
1490
102
}
330
1F
100
AcDbEntity
  8
0
  6
Continuous
 62
     7
370
    15
100
AcDbCircle
 10
931.2399205764895
 20
617.8377613992416
 30
0.0
 40
1.249999999999971
  0
CIRCLE
  5
138A
102
{ACAD_REACTORS
330
1490
102
}
330
1F
100
AcDbEntity
  8
0
  6
Continuous
 62
     7
370
    15
100
AcDbCircle
 10
916.8682045826789
 20
595.9737045187867
 30
0.0
 40
1.249999999999971
  0
CIRCLE
  5
138B
102
{ACAD_REACTORS
330
1490
102
}
330
1F
100
AcDbEntity
  8
0
  6
Continuous
 62
     7
370
    15
100
AcDbCircle
 10
891.8048865472991
 20
588.4628262122305
 30
0.0
 40
1.249999999999971
  0
CIRCLE
  5
138C
102
{ACAD_REACTORS
330
1490
102
}
330
1F
100
AcDbEntity
  8
0
  6
Continuous
 62
     7
370
    15
100
AcDbCircle
 10
867.7773715268567
 20
598.8195499133271
 30
0.0
 40
1.249999999999971
  0
CIRCLE
  5
138D
102
{ACAD_REACTORS
330
1490
102
}
330
1F
100
AcDbEntity
  8
0
  6
Continuous
 62
     7
370
    15
100
AcDbCircle
 10
856.0284008354982
 20
622.1978495001686
 30
0.0
 40
1.249999999999971
  0
CIRCLE
  5
138E
102
{ACAD_REACTORS
330
1490
102
}
330
1F
100
AcDbEntity
  8
0
  6
Continuous
 62
     7
370
    15
100
AcDbCircle
 10
894.0185612912236
 20
626.6487155449172
 30
0.0
 40
59.99999999999999
  0
CIRCLE
  5
138F
102
{ACAD_REACTORS
330
1490
102
}
330
1F
100
AcDbEntity
  8
0
  6
Continuous
 62
     7
370
    15
100
AcDbCircle
 10
894.0185612912236
 20
626.6487155449172
 30
0.0
 40
25.0
  0
CIRCLE
  5
1390
102
{ACAD_REACTORS
330
1490
102
}
330
1F
100
AcDbEntity
  8
0
  6
Continuous
 62
     7
370
    15
100
AcDbCircle
 10
859.8417736910541
 20
609.4728694425307
 30
0.0
 40
1.249999999999971
  0
CIRCLE
  5
1391
102
{ACAD_REACTORS
330
1490
102
}
330
1F
100
AcDbEntity
  8
0
  6
Continuous
 62
     7
370
    15
100
AcDbCircle
 10
878.8780441269545
 20
591.5228384740385
 30
0.0
 40
1.249999999999971
  0
CIRCLE
  5
1392
102
{ACAD_REACTORS
330
1490
102
}
330
1F
100
AcDbEntity
  8
0
  6
Continuous
 62
     7
370
    15
100
AcDbCircle
 10
904.9987308121216
 20
590.0085957676515
 30
0.0
 40
1.249999999999971
  0
CIRCLE
  5
1393
102
{ACAD_REACTORS
330
1490
102
}
330
1F
100
AcDbEntity
  8
0
  6
Continuous
 62
     7
370
    15
100
AcDbCircle
 10
925.9816741474687
 20
605.6386723146206
 30
0.0
 40
1.249999999999971
  0
CIRCLE
  5
1394
102
{ACAD_REACTORS
330
1490
102
}
330
1F
100
AcDbEntity
  8
0
  6
Continuous
 62
     7
370
    15
100
AcDbCircle
 10
932.008721746948
 20
631.0995815896672
 30
0.0
 40
1.249999999999971
  0
CIRCLE
  5
1395
102
{ACAD_REACTORS
330
1490
102
}
330
1F
100
AcDbEntity
  8
0
  6
Continuous
 62
     7
370
    15
100
AcDbCircle
 10
920.2597510555905
 20
654.4778811765073
 30
0.0
 40
1.249999999999971
  0
CIRCLE
  5
1396
102
{ACAD_REACTORS
330
1490
102
}
330
1F
100
AcDbEntity
  8
0
  6
Continuous
 62
     7
370
    15
100
AcDbCircle
 10
896.2322360351471
 20
664.8346048776029
 30
0.0
 40
1.249999999999971
  0
CIRCLE
  5
1397
102
{ACAD_REACTORS
330
1490
102
}
330
1F
100
AcDbEntity
  8
0
  6
Continuous
 62
     7
370
    15
100
AcDbCircle
 10
871.1689179997674
 20
657.3237265710477
 30
0.0
 40
1.249999999999971
  0
CIRCLE
  5
1398
102
{ACAD_REACTORS
330
1490
102
}
330
1F
100
AcDbEntity
  8
0
  6
Continuous
 62
     7
370
    15
100
AcDbCircle
 10
856.7972020059577
 20
635.4596696905928
 30
0.0
 40
1.249999999999971
  0
CIRCLE
  5
1399
102
{ACAD_REACTORS
330
1490
102
}
330
1F
100
AcDbEntity
  8
0
  6
Continuous
 62
     7
370
    15
100
AcDbCircle
 10
897.1437491649984
 20
680.5582063675324
 30
0.0
 40
1.25
  0
CIRCLE
  5
139A
102
{ACAD_REACTORS
330
1490
102
}
330
1F
100
AcDbEntity
  8
0
  6
Continuous
 62
     7
370
    15
100
AcDbCircle
 10
840.1090704686084
 20
629.773903418692
 30
0.0
 40
1.25
  0
CIRCLE
  5
139B
102
{ACAD_REACTORS
330
1490
102
}
330
1F
100
AcDbEntity
  8
0
  6
Continuous
 62
     7
370
    15
100
AcDbCircle
 10
923.6797987928093
 20
671.7731101655054
 30
0.0
 40
1.250000000011681
  0
CIRCLE
  5
139C
102
{ACAD_REACTORS
330
1490
102
}
330
1F
100
AcDbEntity
  8
0
  6
Continuous
 62
     7
370
    15
100
AcDbCircle
 10
890.8933734174378
 20
572.7392247223088
 30
0.0
 40
1.249999999997499
  0
ARC
  5
1465
102
{ACAD_REACTORS
330
183B
102
}
330
1F
100
AcDbEntity
  8
0
  6
Continuous
 62
     7
370
    15
100
AcDbCircle
 10
313.8941616632994
 20
214.1180548095159
 30
0.0
 40
15.00000000000001
100
AcDbArc
 50
252.7925891536187
 51
72.7925891536224
  0
ARC
  5
1466
102
{ACAD_REACTORS
330
183B
102
}
330
1F
100
AcDbEntity
  8
0
  6
Continuous
 62
     7
370
    15
100
AcDbCircle
 10
89.2050572974997
 20
157.8967331931092
 30
0.0
 40
1.5000000000001
100
AcDbArc
 50
72.79258915361635
 51
152.2020813563598
  0
LINE
  5
1467
102
{ACAD_REACTORS
330
183B
102
}
330
1F
100
AcDbEntity
  8
0
  6
Continuous
 62
     7
370
    15
100
AcDbLine
 10
89.64880470766934
 20
159.329593352361
 30
0.0
 11
93.4697651323379
 21
158.1462669252447
 31
0.0
  0
ARC
  5
1468
102
{ACAD_REACTORS
330
183B
102
}
330
1F
100
AcDbEntity
  8
0
  6
Continuous
 62
     7
370
    15
100
AcDbCircle
 10
93.02601772216826
 20
156.7134067659939
 30
0.0
 40
1.500000000000044
100
AcDbArc
 50
252.7925891536885
 51
72.7925891535793
  0
LINE
  5
1469
102
{ACAD_REACTORS
330
183B
102
}
330
1F
100
AcDbEntity
  8
0
  6
Continuous
 62
     7
370
    15
100
AcDbLine
 10
88.76130988733098
 20
156.4638730338586
 30
0.0
 11
92.58227031200136
 21
155.2805466067426
 31
0.0
  0
ARC
  5
146A
102
{ACAD_REACTORS
330
183B
102
}
330
1F
100
AcDbEntity
  8
0
  6
Continuous
 62
     7
370
    15
100
AcDbCircle
 10
89.2050572974997
 20
157.8967331931092
 30
0.0
 40
1.50000000000001
100
AcDbArc
 50
165.6022756182881
 51
252.7925891536154
  0
ARC
  5
146B
102
{ACAD_REACTORS
330
183B
102
}
330
1F
100
AcDbEntity
  8
0
  6
Continuous
 62
     7
370
    15
100
AcDbCircle
 10
108.9172044477639
 20
214.7866433681691
 30
0.0
 40
60.35000000000017
100
AcDbArc
 50
72.79258915362155
 51
249.4695680617743
  0
LINE
  5
146C
102
{ACAD_REACTORS
330
183B
102
}
330
1F
100
AcDbEntity
  8
0
  6
Continuous
 62
     7
370
    15
100
AcDbLine
 10
126.7706419168783
 20
272.4353837753661
 30
0.0
 11
310.6641471731439
 21
215.4847691760017
 31
0.0
  0
ARC
  5
146D
102
{ACAD_REACTORS
330
183B
102
}
330
1F
100
AcDbEntity
  8
0
  6
Continuous
 62
     7
370
    15
100
AcDbCircle
 10
312.0354519821497
 20
214.876885041653
 30
0.0
 40
1.500000000000088
100
AcDbArc
 50
72.79258915357963
 51
156.0928239758279
  0
LINE
  5
146E
102
{ACAD_REACTORS
330
183B
102
}
330
1F
100
AcDbEntity
  8
0
  6
Continuous
 62
     7
370
    15
100
AcDbLine
 10
312.4791993923193
 20
216.3097452009047
 30
0.0
 11
316.3001598169878
 21
215.1264187737889
 31
0.0
  0
ARC
  5
146F
102
{ACAD_REACTORS
330
183B
102
}
330
1F
100
AcDbEntity
  8
0
  6
Continuous
 62
     7
370
    15
100
AcDbCircle
 10
315.85641240682
 20
213.6935586145383
 30
0.0
 40
1.500000000000039
100
AcDbArc
 50
252.7925891536154
 51
72.79258915365178
  0
LINE
  5
1470
102
{ACAD_REACTORS
330
183B
102
}
330
1F
100
AcDbEntity
  8
0
  6
Continuous
 62
     7
370
    15
100
AcDbLine
 10
311.5917045719818
 20
213.4440248824019
 30
0.0
 11
315.4126649966513
 21
212.2606984552863
 31
0.0
  0
ARC
  5
1471
102
{ACAD_REACTORS
330
183B
102
}
330
1F
100
AcDbEntity
  8
0
  6
Continuous
 62
     7
370
    15
100
AcDbCircle
 10
312.0354519821497
 20
214.876885041653
 30
0.0
 40
1.500000000000047
100
AcDbArc
 50
169.4923543313345
 51
252.7925891536521
  0
LINE
  5
1472
102
{ACAD_REACTORS
330
183B
102
}
330
1F
100
AcDbEntity
  8
0
  6
Continuous
 62
     7
370
    15
100
AcDbLine
 10
126.6671008545056
 20
272.1010497382086
 30
0.0
 11
310.5606061107694
 21
215.1504351388444
 31
0.0
  0
ARC
  5
1473
102
{ACAD_REACTORS
330
183B
102
}
330
1F
100
AcDbEntity
  8
0
  6
Continuous
 62
     7
370
    15
100
AcDbCircle
 10
108.9172044477639
 20
214.7866433681691
 30
0.0
 40
60.00000000000012
100
AcDbArc
 50
72.7925891536206
 51
249.4728779434364
  0
LINE
  5
1474
102
{ACAD_REACTORS
330
183B
102
}
330
1F
100
AcDbEntity
  8
0
  6
Continuous
 62
     7
370
    15
100
AcDbLine
 10
131.1045749561911
 20
286.4296513307179
 30
0.0
 11
318.3316357649849
 21
228.4466564020254
 31
0.0
  0
ARC
  5
1475
102
{ACAD_REACTORS
330
183B
102
}
330
1F
100
AcDbEntity
  8
0
  6
Continuous
 62
     7
370
    15
100
AcDbCircle
 10
108.9172044477639
 20
214.7866433681691
 30
0.0
 40
75.00000000000006
100
AcDbArc
 50
72.79258915362168
 51
252.7925891536216
  0
ARC
  5
1476
102
{ACAD_REACTORS
330
183B
102
}
330
1F
100
AcDbEntity
  8
0
  6
Continuous
 62
     7
370
    15
100
AcDbCircle
 10
91.16730804102212
 20
157.4722369981301
 30
0.0
 40
14.99999999999998
100
AcDbArc
 50
252.7925891536151
 51
72.79258915362598
  0
ARC
  5
1477
102
{ACAD_REACTORS
330
183B
102
}
330
1F
100
AcDbEntity
  8
0
  6
Continuous
 62
     7
370
    15
100
AcDbCircle
 10
108.9172044477639
 20
214.7866433681691
 30
0.0
 40
45.00000000000011
100
AcDbArc
 50
72.79258915362121
 51
252.7925891536212
  0
LINE
  5
1478
102
{ACAD_REACTORS
330
183B
102
}
330
1F
100
AcDbEntity
  8
0
  6
Continuous
 62
     7
370
    15
100
AcDbLine
 10
122.2296267528202
 20
257.772448145699
 30
0.0
 11
309.4566875616131
 21
199.7894532170065
 31
0.0
  0
ARC
  5
1479
102
{ACAD_REACTORS
330
183B
102
}
330
1F
100
AcDbEntity
  8
0
  6
Continuous
 62
     7
370
    15
100
AcDbCircle
 10
100.5340952085874
 20
219.4557778448562
 30
0.0
 40
15.00000000000001
100
AcDbArc
 50
72.7925891536224
 51
252.7925891536187
  0
ARC
  5
147A
102
{ACAD_REACTORS
330
183B
102
}
330
1F
100
AcDbEntity
  8
0
  6
Continuous
 62
     7
370
    15
100
AcDbCircle
 10
325.2231995743862
 20
275.677099461263
 30
0.0
 40
1.5000000000001
100
AcDbArc
 50
252.792589153616
 51
332.2020813563481
  0
LINE
  5
147B
102
{ACAD_REACTORS
330
183B
102
}
330
1F
100
AcDbEntity
  8
0
  6
Continuous
 62
     7
370
    15
100
AcDbLine
 10
324.7794521642174
 20
274.244239302012
 30
0.0
 11
320.958491739548
 21
275.4275657291285
 31
0.0
  0
ARC
  5
147C
102
{ACAD_REACTORS
330
183B
102
}
330
1F
100
AcDbEntity
  8
0
  6
Continuous
 62
     7
370
    15
100
AcDbCircle
 10
321.4022391497176
 20
276.8604258883782
 30
0.0
 40
1.500000000000044
100
AcDbArc
 50
72.79258915368818
 51
252.792589153579
  0
LINE
  5
147D
102
{ACAD_REACTORS
330
183B
102
}
330
1F
100
AcDbEntity
  8
0
  6
Continuous
 62
     7
370
    15
100
AcDbLine
 10
325.6669469845558
 20
277.1099596205145
 30
0.0
 11
321.8459865598845
 21
278.2932860476297
 31
0.0
  0
ARC
  5
147E
102
{ACAD_REACTORS
330
183B
102
}
330
1F
100
AcDbEntity
  8
0
  6
Continuous
 62
     7
370
    15
100
AcDbCircle
 10
325.2231995743862
 20
275.677099461263
 30
0.0
 40
1.50000000000001
100
AcDbArc
 50
345.6022756182803
 51
72.79258915361538
  0
ARC
  5
147F
102
{ACAD_REACTORS
330
183B
102
}
330
1F
100
AcDbEntity
  8
0
  6
Continuous
 62
     7
370
    15
100
AcDbCircle
 10
305.5110524241229
 20
218.7871892862029
 30
0.0
 40
60.35000000000017
100
AcDbArc
 50
252.7925891536206
 51
69.46956806177434
  0
LINE
  5
1480
102
{ACAD_REACTORS
330
183B
102
}
330
1F
100
AcDbEntity
  8
0
  6
Continuous
 62
     7
370
    15
100
AcDbLine
 10
287.6576149550076
 20
161.1384488790059
 30
0.0
 11
103.7641096987438
 21
218.089063478371
 31
0.0
  0
ARC
  5
1481
102
{ACAD_REACTORS
330
183B
102
}
330
1F
100
AcDbEntity
  8
0
  6
Continuous
 62
     7
370
    15
100
AcDbCircle
 10
102.3928048897362
 20
218.696947612719
 30
0.0
 40
1.500000000000088
100
AcDbArc
 50
252.792589153616
 51
336.0928239758891
  0
LINE
  5
1482
102
{ACAD_REACTORS
330
183B
102
}
330
1F
100
AcDbEntity
  8
0
  6
Continuous
 62
     7
370
    15
100
AcDbLine
 10
101.9490574795675
 20
217.2640874534684
 30
0.0
 11
98.12809705489803
 21
218.4474138805832
 31
0.0
  0
ARC
  5
1483
102
{ACAD_REACTORS
330
183B
102
}
330
1F
100
AcDbEntity
  8
0
  6
Continuous
 62
     7
370
    15
100
AcDbCircle
 10
98.57184446506676
 20
219.8802740398349
 30
0.0
 40
1.500000000000039
100
AcDbArc
 50
72.79258915365178
 51
252.7925891536154
  0
LINE
  5
1484
102
{ACAD_REACTORS
330
183B
102
}
330
1F
100
AcDbEntity
  8
0
  6
Continuous
 62
     7
370
    15
100
AcDbLine
 10
102.836552299904
 20
220.1298077719701
 30
0.0
 11
99.01559187523458
 21
221.3131341990859
 31
0.0
  0
ARC
  5
1485
102
{ACAD_REACTORS
330
183B
102
}
330
1F
100
AcDbEntity
  8
0
  6
Continuous
 62
     7
370
    15
100
AcDbCircle
 10
102.3928048897362
 20
218.696947612719
 30
0.0
 40
1.500000000000047
100
AcDbArc
 50
349.4923543313702
 51
72.7925891536703
  0
LINE
  5
1486
102
{ACAD_REACTORS
330
183B
102
}
330
1F
100
AcDbEntity
  8
0
  6
Continuous
 62
     7
370
    15
100
AcDbLine
 10
287.7611560173821
 20
161.4727829161641
 30
0.0
 11
103.8676507611165
 21
218.423397515529
 31
0.0
  0
ARC
  5
1487
102
{ACAD_REACTORS
330
183B
102
}
330
1F
100
AcDbEntity
  8
0
  6
Continuous
 62
     7
370
    15
100
AcDbCircle
 10
305.5110524241229
 20
218.7871892862029
 30
0.0
 40
60.00000000000012
100
AcDbArc
 50
252.7925891536201
 51
69.4728779434375
  0
LINE
  5
1488
102
{ACAD_REACTORS
330
183B
102
}
330
1F
100
AcDbEntity
  8
0
  6
Continuous
 62
     7
370
    15
100
AcDbLine
 10
283.3236819156948
 20
147.1441813236552
 30
0.0
 11
96.09662110690101
 21
205.1271762523466
 31
0.0
  0
ARC
  5
1489
102
{ACAD_REACTORS
330
183B
102
}
330
1F
100
AcDbEntity
  8
0
  6
Continuous
 62
     7
370
    15
100
AcDbCircle
 10
305.5110524241229
 20
218.7871892862029
 30
0.0
 40
75.00000000000006
100
AcDbArc
 50
252.7925891536208
 51
72.79258915362168
  0
ARC
  5
148A
102
{ACAD_REACTORS
330
183B
102
}
330
1F
100
AcDbEntity
  8
0
  6
Continuous
 62
     7
370
    15
100
AcDbCircle
 10
323.2609488308647
 20
276.101595656242
 30
0.0
 40
14.99999999999998
100
AcDbArc
 50
72.79258915361869
 51
252.7925891536223
  0
ARC
  5
148B
102
{ACAD_REACTORS
330
183B
102
}
330
1F
100
AcDbEntity
  8
0
  6
Continuous
 62
     7
370
    15
100
AcDbCircle
 10
305.5110524241229
 20
218.7871892862029
 30
0.0
 40
45.00000000000011
100
AcDbArc
 50
252.7925891536212
 51
72.79258915362243
  0
LINE
  5
148C
102
{ACAD_REACTORS
330
183B
102
}
330
1F
100
AcDbEntity
  8
0
  6
Continuous
 62
     7
370
    15
100
AcDbLine
 10
292.1986301190666
 20
175.8013845086742
 30
0.0
 11
104.9715693102728
 21
233.7843794373658
 31
0.0
  0
LINE
  5
1508
330
1F
100
AcDbEntity
  8
0
100
AcDbLine
 10
24.65336513743023
 20
134.3235533712545
 30
0.0
 11
24.65336513743023
 21
1034.323553371255
 31
0.0
  0
LINE
  5
1509
330
1F
100
AcDbEntity
  8
0
100
AcDbLine
 10
24.65336513743023
 20
1034.323553371255
 30
0.0
 11
1024.65336513743
 21
1034.323553371255
 31
0.0
  0
LINE
  5
150A
330
1F
100
AcDbEntity
  8
0
100
AcDbLine
 10
1024.65336513743
 20
1034.323553371255
 30
0.0
 11
1024.65336513743
 21
134.3235533712545
 31
0.0
  0
ARC
  5
17CC
102
{ACAD_REACTORS
330
17F0
102
}
330
1F
100
AcDbEntity
  8
0
  6
Continuous
 62
     7
370
    15
100
AcDbCircle
 10
208.8515751187102
 20
550.311777491725
 30
0.0
 40
1.499999999999979
100
AcDbArc
 50
347.6822188316618
 51
167.6822188316797
  0
LINE
  5
17CD
102
{ACAD_REACTORS
330
17F0
102
}
330
1F
100
AcDbEntity
  8
0
  6
Continuous
 62
     7
370
    15
100
AcDbLine
 10
206.5327716263078
 20
546.7238602179259
 30
0.0
 11
207.3861059953838
 21
550.6317778801281
 31
0.0
  0
ARC
  5
17CE
102
{ACAD_REACTORS
330
17F0
102
}
330
1F
100
AcDbEntity
  8
0
  6
Continuous
 62
     7
370
    15
100
AcDbCircle
 10
207.9982407496341
 20
546.4038598295224
 30
0.0
 40
1.500000000000044
100
AcDbArc
 50
167.6822188316625
 51
250.9824536539063
  0
LINE
  5
17CF
102
{ACAD_REACTORS
330
17F0
102
}
330
1F
100
AcDbEntity
  8
0
  6
Continuous
 62
     7
370
    15
100
AcDbLine
 10
166.4405524517343
 20
356.9071865913502
 30
0.0
 11
207.5094542052989
 21
544.9857315863519
 31
0.0
  0
ARC
  5
17D0
102
{ACAD_REACTORS
330
17F0
102
}
330
1F
100
AcDbEntity
  8
0
  6
Continuous
 62
     7
370
    15
100
AcDbCircle
 10
107.8217875186975
 20
369.7072021274876
 30
0.0
 40
60.00000000000009
100
AcDbArc
 50
171.0019300418499
 51
347.6822188316661
  0
ARC
  5
17D1
102
{ACAD_REACTORS
330
17F0
102
}
330
1F
100
AcDbEntity
  8
0
  6
Continuous
 62
     7
370
    15
100
AcDbCircle
 10
48.60538400340107
 20
380.5905922111716
 30
0.0
 40
1.500000000000017
100
AcDbArc
 50
268.2727266289218
 51
347.6822188316444
  0
LINE
  5
17D2
102
{ACAD_REACTORS
330
17F0
102
}
330
1F
100
AcDbEntity
  8
0
  6
Continuous
 62
     7
370
    15
100
AcDbLine
 10
50.07085312672694
 20
380.2705918227676
 30
0.0
 11
50.92418749580298
 21
384.1785094849702
 31
0.0
  0
ARC
  5
17D3
102
{ACAD_REACTORS
330
17F0
102
}
330
1F
100
AcDbEntity
  8
0
  6
Continuous
 62
     7
370
    15
100
AcDbCircle
 10
49.45871837247665
 20
384.4985098733737
 30
0.0
 40
1.499999999999988
100
AcDbArc
 50
347.682218831662
 51
167.682218831662
  0
LINE
  5
17D4
102
{ACAD_REACTORS
330
17F0
102
}
330
1F
100
AcDbEntity
  8
0
  6
Continuous
 62
     7
370
    15
100
AcDbLine
 10
47.1399148800752
 20
380.9105925995746
 30
0.0
 11
47.99324924915078
 21
384.8185102617772
 31
0.0
  0
ARC
  5
17D5
102
{ACAD_REACTORS
330
17F0
102
}
330
1F
100
AcDbEntity
  8
0
  6
Continuous
 62
     7
370
    15
100
AcDbCircle
 10
48.60538400340107
 20
380.5905922111716
 30
0.0
 40
1.500000000000077
100
AcDbArc
 50
167.6822188316783
 51
254.8725323669775
  0
ARC
  5
17D6
102
{ACAD_REACTORS
330
17F0
102
}
330
1F
100
AcDbEntity
  8
0
  6
Continuous
 62
     7
370
    15
100
AcDbCircle
 10
107.8217875186975
 20
369.7072021274876
 30
0.0
 40
60.35000000000013
100
AcDbArc
 50
171.0052399235121
 51
347.6822188316657
  0
LINE
  5
17D7
102
{ACAD_REACTORS
330
17F0
102
}
330
1F
100
AcDbEntity
  8
0
  6
Continuous
 62
     7
370
    15
100
AcDbLine
 10
166.782495247177
 20
356.8325198340563
 30
0.0
 11
207.8513970007417
 21
544.9110648290584
 31
0.0
  0
ARC
  5
17D8
102
{ACAD_REACTORS
330
17F0
102
}
330
1F
100
AcDbEntity
  8
0
  6
Continuous
 62
     7
370
    15
100
AcDbCircle
 10
207.9982407496341
 20
546.4038598295224
 30
0.0
 40
1.500000000000039
100
AcDbArc
 50
264.3819840094224
 51
347.6822188316802
  0
LINE
  5
17D9
102
{ACAD_REACTORS
330
17F0
102
}
330
1F
100
AcDbEntity
  8
0
  6
Continuous
 62
     7
370
    15
100
AcDbLine
 10
209.46370987296
 20
546.0838594411193
 30
0.0
 11
210.3170442420356
 21
549.9917771033215
 31
0.0
  0
CIRCLE
  5
17DA
102
{ACAD_REACTORS
330
17F0
102
}
330
1F
100
AcDbEntity
  8
0
  6
Continuous
 62
     7
370
    15
100
AcDbCircle
 10
453.0394713060069
 20
331.0807331206562
 30
0.0
 40
1.249999999999943
  0
CIRCLE
  5
17DB
102
{ACAD_REACTORS
330
17F0
102
}
330
1F
100
AcDbEntity
  8
0
  6
Continuous
 62
     7
370
    15
100
AcDbCircle
 10
449.9948996209096
 20
357.0675333687205
 30
0.0
 40
1.25
  0
CIRCLE
  5
17DC
102
{ACAD_REACTORS
330
17F0
102
}
330
1F
100
AcDbEntity
  8
0
  6
Continuous
 62
     7
370
    15
100
AcDbCircle
 10
464.3666156147202
 20
378.9315902491749
 30
0.0
 40
1.250000000000057
  0
CIRCLE
  5
17DD
102
{ACAD_REACTORS
330
17F0
102
}
330
1F
100
AcDbEntity
  8
0
  6
Continuous
 62
     7
370
    15
100
AcDbCircle
 10
442.0918642855941
 20
377.9178167246401
 30
0.0
 40
1.25
  0
CIRCLE
  5
17DE
102
{ACAD_REACTORS
330
17F0
102
}
330
1F
100
AcDbEntity
  8
0
  6
Continuous
 62
     7
370
    15
100
AcDbCircle
 10
438.9666764118193
 20
324.0083259020254
 30
0.0
 40
1.250000000000057
  0
LINE
  5
17DF
102
{ACAD_REACTORS
330
17F0
102
}
330
1F
100
AcDbEntity
  8
0
  6
Continuous
 62
     7
370
    15
100
AcDbLine
 10
56.06131072120758
 20
423.9829153120841
 30
0.0
 11
197.901841176953
 21
559.2502946761902
 31
0.0
  0
ARC
  5
17E0
102
{ACAD_REACTORS
330
17F0
102
}
330
1F
100
AcDbEntity
  8
0
  6
Continuous
 62
     7
370
    15
100
AcDbCircle
 10
208.2539365364506
 20
548.3951520392707
 30
0.0
 40
15.00000000000001
100
AcDbArc
 50
347.6822188316657
 51
133.6411676086253
  0
LINE
  5
17E1
102
{ACAD_REACTORS
330
17F0
102
}
330
1F
100
AcDbEntity
  8
0
  6
Continuous
 62
     7
370
    15
100
AcDbLine
 10
199.0771441594939
 20
436.0568325173554
 30
0.0
 11
222.9086277697098
 21
545.1951481552364
 31
0.0
  0
ARC
  5
17E2
102
{ACAD_REACTORS
330
17F0
102
}
330
1F
100
AcDbEntity
  8
0
  6
Continuous
 62
     7
370
    15
100
AcDbCircle
 10
242.1438673476851
 20
426.6527666601319
 30
0.0
 40
44.081505201335
100
AcDbArc
 50
167.6822188316652
 51
266.6822188316652
  0
LINE
  5
17E3
102
{ACAD_REACTORS
330
17F0
102
}
330
1F
100
AcDbEntity
  8
0
  6
Continuous
 62
     7
370
    15
100
AcDbLine
 10
239.5927009492971
 20
382.6451462879386
 30
0.0
 11
339.3419145926337
 21
376.8625831781802
 31
0.0
  0
ARC
  5
17E4
102
{ACAD_REACTORS
330
17F0
102
}
330
1F
100
AcDbEntity
  8
0
  6
Continuous
 62
     7
370
    15
100
AcDbCircle
 10
353.1485353671442
 20
615.0267915384889
 30
0.0
 40
238.5640646055134
100
AcDbArc
 50
266.682218831665
 51
296.6822188316656
  0
LINE
  5
17E5
102
{ACAD_REACTORS
330
17F0
102
}
330
1F
100
AcDbEntity
  8
0
  6
Continuous
 62
     7
370
    15
100
AcDbLine
 10
460.2737552161544
 20
401.8672264389957
 30
0.0
 11
471.948840148496
 21
378.63594597875
 31
0.0
  0
ARC
  5
17E6
102
{ACAD_REACTORS
330
17F0
102
}
330
1F
100
AcDbEntity
  8
0
  6
Continuous
 62
     7
370
    15
100
AcDbCircle
 10
487.2162589061755
 20
348.2565792230444
 30
0.0
 40
33.99999999999999
100
AcDbArc
 50
116.6822188316662
 51
236.6822188316651
  0
LINE
  5
17E7
102
{ACAD_REACTORS
330
17F0
102
}
330
1F
100
AcDbEntity
  8
0
  6
Continuous
 62
     7
370
    15
100
AcDbLine
 10
454.2593283488469
 20
298.1183629779541
 30
0.0
 11
468.5406649236893
 21
319.8449233508265
 31
0.0
  0
ARC
  5
17E8
102
{ACAD_REACTORS
330
17F0
102
}
330
1F
100
AcDbEntity
  8
0
  6
Continuous
 62
     7
370
    15
100
AcDbCircle
 10
323.2203398375487
 20
98.76541865297185
 30
0.0
 40
238.5640646055134
100
AcDbArc
 50
56.68221883166577
 51
86.68221883166497
  0
LINE
  5
17E9
102
{ACAD_REACTORS
330
17F0
102
}
330
1F
100
AcDbEntity
  8
0
  6
Continuous
 62
     7
370
    15
100
AcDbLine
 10
237.2777469687235
 20
342.7121901230386
 30
0.0
 11
337.0269606120601
 21
336.9296270132801
 31
0.0
  0
ARC
  5
17EA
102
{ACAD_REACTORS
330
17F0
102
}
330
1F
100
AcDbEntity
  8
0
  6
Continuous
 62
     7
370
    15
100
AcDbCircle
 10
231.0974812997234
 20
236.1026073327845
 30
0.0
 40
106.788570673324
100
AcDbArc
 50
86.68221883166521
 51
132.697434036633
  0
ARC
  5
17EB
102
{ACAD_REACTORS
330
17F0
102
}
330
1F
100
AcDbEntity
  8
0
  6
Continuous
 62
     7
370
    15
100
AcDbCircle
 10
107.8217875186975
 20
369.7072021274876
 30
0.0
 40
75.00000000000011
100
AcDbArc
 50
133.6411676086256
 51
312.6974340366335
  0
CIRCLE
  5
17EC
102
{ACAD_REACTORS
330
17F0
102
}
330
1F
100
AcDbEntity
  8
0
  6
Continuous
 62
     7
370
    15
100
AcDbCircle
 10
433.3067680835603
 20
351.3817670968193
 30
0.0
 40
1.249999999999943
  0
CIRCLE
  5
17ED
102
{ACAD_REACTORS
330
17F0
102
}
330
1F
100
AcDbEntity
  8
0
  6
Continuous
 62
     7
370
    15
100
AcDbCircle
 10
455.2531460499304
 20
369.2666224533419
 30
0.0
 40
1.249999999999943
  0
CIRCLE
  5
17EE
102
{ACAD_REACTORS
330
17F0
102
}
330
1F
100
AcDbEntity
  8
0
  6
Continuous
 62
     7
370
    15
100
AcDbCircle
 10
449.2260984504501
 20
343.8057131782968
 30
0.0
 40
1.25
  0
CIRCLE
  5
17EF
102
{ACAD_REACTORS
330
17F0
102
}
330
1F
100
AcDbEntity
  8
0
  6
Continuous
 62
     7
370
    15
100
AcDbCircle
 10
460.9750691418076
 20
320.4274135914554
 30
0.0
 40
1.25
  0
ARC
  5
17F1
102
{ACAD_REACTORS
330
1815
102
}
330
1F
100
AcDbEntity
  8
0
  6
Continuous
 62
     7
370
    15
100
AcDbCircle
 10
219.8853951969373
 20
783.8457910510474
 30
0.0
 40
1.499999999999979
100
AcDbArc
 50
347.6822188316618
 51
167.6822188316797
  0
LINE
  5
17F2
102
{ACAD_REACTORS
330
1815
102
}
330
1F
100
AcDbEntity
  8
0
  6
Continuous
 62
     7
370
    15
100
AcDbLine
 10
217.5665917045349
 20
780.2578737772483
 30
0.0
 11
218.419926073611
 21
784.1657914394505
 31
0.0
  0
ARC
  5
17F3
102
{ACAD_REACTORS
330
1815
102
}
330
1F
100
AcDbEntity
  8
0
  6
Continuous
 62
     7
370
    15
100
AcDbCircle
 10
219.0320608278612
 20
779.9378733888448
 30
0.0
 40
1.500000000000044
100
AcDbArc
 50
167.6822188316625
 51
250.9824536539063
  0
LINE
  5
17F4
102
{ACAD_REACTORS
330
1815
102
}
330
1F
100
AcDbEntity
  8
0
  6
Continuous
 62
     7
370
    15
100
AcDbLine
 10
177.4743725299614
 20
590.4412001506726
 30
0.0
 11
218.543274283526
 21
778.5197451456743
 31
0.0
  0
ARC
  5
17F5
102
{ACAD_REACTORS
330
1815
102
}
330
1F
100
AcDbEntity
  8
0
  6
Continuous
 62
     7
370
    15
100
AcDbCircle
 10
118.8556075969246
 20
603.2412156868099
 30
0.0
 40
60.00000000000009
100
AcDbArc
 50
171.0019300418499
 51
347.6822188316661
  0
ARC
  5
17F6
102
{ACAD_REACTORS
330
1815
102
}
330
1F
100
AcDbEntity
  8
0
  6
Continuous
 62
     7
370
    15
100
AcDbCircle
 10
59.63920408162818
 20
614.1246057704939
 30
0.0
 40
1.500000000000017
100
AcDbArc
 50
268.2727266289218
 51
347.6822188316444
  0
LINE
  5
17F7
102
{ACAD_REACTORS
330
1815
102
}
330
1F
100
AcDbEntity
  8
0
  6
Continuous
 62
     7
370
    15
100
AcDbLine
 10
61.10467320495405
 20
613.8046053820899
 30
0.0
 11
61.95800757403009
 21
617.7125230442925
 31
0.0
  0
ARC
  5
17F8
102
{ACAD_REACTORS
330
1815
102
}
330
1F
100
AcDbEntity
  8
0
  6
Continuous
 62
     7
370
    15
100
AcDbCircle
 10
60.49253845070376
 20
618.032523432696
 30
0.0
 40
1.499999999999988
100
AcDbArc
 50
347.682218831662
 51
167.682218831662
  0
LINE
  5
17F9
102
{ACAD_REACTORS
330
1815
102
}
330
1F
100
AcDbEntity
  8
0
  6
Continuous
 62
     7
370
    15
100
AcDbLine
 10
58.1737349583023
 20
614.4446061588969
 30
0.0
 11
59.02706932737789
 21
618.3525238210996
 31
0.0
  0
ARC
  5
17FA
102
{ACAD_REACTORS
330
1815
102
}
330
1F
100
AcDbEntity
  8
0
  6
Continuous
 62
     7
370
    15
100
AcDbCircle
 10
59.63920408162818
 20
614.1246057704939
 30
0.0
 40
1.500000000000077
100
AcDbArc
 50
167.6822188316805
 51
254.8725323669786
  0
ARC
  5
17FB
102
{ACAD_REACTORS
330
1815
102
}
330
1F
100
AcDbEntity
  8
0
  6
Continuous
 62
     7
370
    15
100
AcDbCircle
 10
118.8556075969246
 20
603.2412156868099
 30
0.0
 40
60.35000000000013
100
AcDbArc
 50
171.0052399235121
 51
347.6822188316657
  0
LINE
  5
17FC
102
{ACAD_REACTORS
330
1815
102
}
330
1F
100
AcDbEntity
  8
0
  6
Continuous
 62
     7
370
    15
100
AcDbLine
 10
177.8163153254041
 20
590.3665333933786
 30
0.0
 11
218.8852170789688
 21
778.4450783883808
 31
0.0
  0
ARC
  5
17FD
102
{ACAD_REACTORS
330
1815
102
}
330
1F
100
AcDbEntity
  8
0
  6
Continuous
 62
     7
370
    15
100
AcDbCircle
 10
219.0320608278612
 20
779.9378733888448
 30
0.0
 40
1.500000000000039
100
AcDbArc
 50
264.3819840094235
 51
347.6822188316802
  0
LINE
  5
17FE
102
{ACAD_REACTORS
330
1815
102
}
330
1F
100
AcDbEntity
  8
0
  6
Continuous
 62
     7
370
    15
100
AcDbLine
 10
220.4975299511871
 20
779.6178730004417
 30
0.0
 11
221.3508643202627
 21
783.5257906626439
 31
0.0
  0
CIRCLE
  5
17FF
102
{ACAD_REACTORS
330
1815
102
}
330
1F
100
AcDbEntity
  8
0
  6
Continuous
 62
     7
370
    15
100
AcDbCircle
 10
464.073291384234
 20
564.6147466799785
 30
0.0
 40
1.249999999999943
  0
CIRCLE
  5
1800
102
{ACAD_REACTORS
330
1815
102
}
330
1F
100
AcDbEntity
  8
0
  6
Continuous
 62
     7
370
    15
100
AcDbCircle
 10
461.0287196991367
 20
590.6015469280428
 30
0.0
 40
1.25
  0
CIRCLE
  5
1801
102
{ACAD_REACTORS
330
1815
102
}
330
1F
100
AcDbEntity
  8
0
  6
Continuous
 62
     7
370
    15
100
AcDbCircle
 10
475.4004356929473
 20
612.4656038084972
 30
0.0
 40
1.250000000000057
  0
CIRCLE
  5
1802
102
{ACAD_REACTORS
330
1815
102
}
330
1F
100
AcDbEntity
  8
0
  6
Continuous
 62
     7
370
    15
100
AcDbCircle
 10
453.1256843638212
 20
611.4518302839624
 30
0.0
 40
1.25
  0
CIRCLE
  5
1803
102
{ACAD_REACTORS
330
1815
102
}
330
1F
100
AcDbEntity
  8
0
  6
Continuous
 62
     7
370
    15
100
AcDbCircle
 10
450.0004964900464
 20
557.5423394613476
 30
0.0
 40
1.250000000000057
  0
LINE
  5
1804
102
{ACAD_REACTORS
330
1815
102
}
330
1F
100
AcDbEntity
  8
0
  6
Continuous
 62
     7
370
    15
100
AcDbLine
 10
67.09513079943468
 20
657.5169288714064
 30
0.0
 11
208.9356612551802
 21
792.7843082355125
 31
0.0
  0
ARC
  5
1805
102
{ACAD_REACTORS
330
1815
102
}
330
1F
100
AcDbEntity
  8
0
  6
Continuous
 62
     7
370
    15
100
AcDbCircle
 10
219.2877566146777
 20
781.929165598593
 30
0.0
 40
15.00000000000001
100
AcDbArc
 50
347.6822188316657
 51
133.6411676086253
  0
LINE
  5
1806
102
{ACAD_REACTORS
330
1815
102
}
330
1F
100
AcDbEntity
  8
0
  6
Continuous
 62
     7
370
    15
100
AcDbLine
 10
210.110964237721
 20
669.5908460766777
 30
0.0
 11
233.9424478479369
 21
778.7291617145588
 31
0.0
  0
ARC
  5
1807
102
{ACAD_REACTORS
330
1815
102
}
330
1F
100
AcDbEntity
  8
0
  6
Continuous
 62
     7
370
    15
100
AcDbCircle
 10
253.1776874259122
 20
660.1867802194542
 30
0.0
 40
44.081505201335
100
AcDbArc
 50
167.6822188316652
 51
266.6822188316652
  0
LINE
  5
1808
102
{ACAD_REACTORS
330
1815
102
}
330
1F
100
AcDbEntity
  8
0
  6
Continuous
 62
     7
370
    15
100
AcDbLine
 10
250.6265210275242
 20
616.179159847261
 30
0.0
 11
350.3757346708608
 21
610.3965967375025
 31
0.0
  0
ARC
  5
1809
102
{ACAD_REACTORS
330
1815
102
}
330
1F
100
AcDbEntity
  8
0
  6
Continuous
 62
     7
370
    15
100
AcDbCircle
 10
364.1823554453713
 20
848.5608050978112
 30
0.0
 40
238.5640646055134
100
AcDbArc
 50
266.682218831665
 51
296.6822188316656
  0
LINE
  5
180A
102
{ACAD_REACTORS
330
1815
102
}
330
1F
100
AcDbEntity
  8
0
  6
Continuous
 62
     7
370
    15
100
AcDbLine
 10
471.3075752943815
 20
635.401239998318
 30
0.0
 11
482.9826602267231
 21
612.1699595380724
 31
0.0
  0
ARC
  5
180B
102
{ACAD_REACTORS
330
1815
102
}
330
1F
100
AcDbEntity
  8
0
  6
Continuous
 62
     7
370
    15
100
AcDbCircle
 10
498.2500789844026
 20
581.7905927823667
 30
0.0
 40
33.99999999999999
100
AcDbArc
 50
116.6822188316662
 51
236.6822188316651
  0
LINE
  5
180C
102
{ACAD_REACTORS
330
1815
102
}
330
1F
100
AcDbEntity
  8
0
  6
Continuous
 62
     7
370
    15
100
AcDbLine
 10
465.293148427074
 20
531.6523765372763
 30
0.0
 11
479.5744850019165
 21
553.3789369101487
 31
0.0
  0
ARC
  5
180D
102
{ACAD_REACTORS
330
1815
102
}
330
1F
100
AcDbEntity
  8
0
  6
Continuous
 62
     7
370
    15
100
AcDbCircle
 10
334.2541599157758
 20
332.2994322122941
 30
0.0
 40
238.5640646055134
100
AcDbArc
 50
56.68221883166579
 51
86.68221883166497
  0
LINE
  5
180E
102
{ACAD_REACTORS
330
1815
102
}
330
1F
100
AcDbEntity
  8
0
  6
Continuous
 62
     7
370
    15
100
AcDbLine
 10
248.3115670469506
 20
576.2462036823608
 30
0.0
 11
348.0607806902872
 21
570.4636405726023
 31
0.0
  0
ARC
  5
180F
102
{ACAD_REACTORS
330
1815
102
}
330
1F
100
AcDbEntity
  8
0
  6
Continuous
 62
     7
370
    15
100
AcDbCircle
 10
242.1313013779505
 20
469.6366208921067
 30
0.0
 40
106.788570673324
100
AcDbArc
 50
86.68221883166521
 51
132.697434036633
  0
ARC
  5
1810
102
{ACAD_REACTORS
330
1815
102
}
330
1F
100
AcDbEntity
  8
0
  6
Continuous
 62
     7
370
    15
100
AcDbCircle
 10
118.8556075969246
 20
603.2412156868099
 30
0.0
 40
75.00000000000011
100
AcDbArc
 50
133.6411676086256
 51
312.6974340366335
  0
CIRCLE
  5
1811
102
{ACAD_REACTORS
330
1815
102
}
330
1F
100
AcDbEntity
  8
0
  6
Continuous
 62
     7
370
    15
100
AcDbCircle
 10
444.3405881617874
 20
584.9157806561416
 30
0.0
 40
1.249999999999943
  0
CIRCLE
  5
1812
102
{ACAD_REACTORS
330
1815
102
}
330
1F
100
AcDbEntity
  8
0
  6
Continuous
 62
     7
370
    15
100
AcDbCircle
 10
466.2869661281575
 20
602.8006360126642
 30
0.0
 40
1.249999999999943
  0
CIRCLE
  5
1813
102
{ACAD_REACTORS
330
1815
102
}
330
1F
100
AcDbEntity
  8
0
  6
Continuous
 62
     7
370
    15
100
AcDbCircle
 10
460.2599185286772
 20
577.339726737619
 30
0.0
 40
1.25
  0
CIRCLE
  5
1814
102
{ACAD_REACTORS
330
1815
102
}
330
1F
100
AcDbEntity
  8
0
  6
Continuous
 62
     7
370
    15
100
AcDbCircle
 10
472.0088892200347
 20
553.9614271507776
 30
0.0
 40
1.25
  0
ARC
  5
1816
102
{ACAD_REACTORS
330
183A
102
}
330
1F
100
AcDbEntity
  8
0
  6
Continuous
 62
     7
370
    15
100
AcDbCircle
 10
220.3512713809855
 20
1011.257900034935
 30
0.0
 40
1.499999999999979
100
AcDbArc
 50
347.6822188316618
 51
167.6822188316788
  0
LINE
  5
1817
102
{ACAD_REACTORS
330
183A
102
}
330
1F
100
AcDbEntity
  8
0
  6
Continuous
 62
     7
370
    15
100
AcDbLine
 10
218.0324678885831
 20
1007.669982761136
 30
0.0
 11
218.8858022576592
 21
1011.577900423338
 31
0.0
  0
ARC
  5
1818
102
{ACAD_REACTORS
330
183A
102
}
330
1F
100
AcDbEntity
  8
0
  6
Continuous
 62
     7
370
    15
100
AcDbCircle
 10
219.4979370119095
 20
1007.349982372732
 30
0.0
 40
1.500000000000044
100
AcDbArc
 50
167.6822188316619
 51
250.9824536539042
  0
LINE
  5
1819
102
{ACAD_REACTORS
330
183A
102
}
330
1F
100
AcDbEntity
  8
0
  6
Continuous
 62
     7
370
    15
100
AcDbLine
 10
177.9402487140096
 20
817.8533091345602
 30
0.0
 11
219.0091504675743
 21
1005.931854129562
 31
0.0
  0
ARC
  5
181A
102
{ACAD_REACTORS
330
183A
102
}
330
1F
100
AcDbEntity
  8
0
  6
Continuous
 62
     7
370
    15
100
AcDbCircle
 10
119.3214837809728
 20
830.6533246706975
 30
0.0
 40
60.00000000000009
100
AcDbArc
 50
171.0019300418499
 51
347.6822188316661
  0
ARC
  5
181B
102
{ACAD_REACTORS
330
183A
102
}
330
1F
100
AcDbEntity
  8
0
  6
Continuous
 62
     7
370
    15
100
AcDbCircle
 10
60.10508026567641
 20
841.5367147543815
 30
0.0
 40
1.500000000000017
100
AcDbArc
 50
268.2727266289218
 51
347.6822188316448
  0
LINE
  5
181C
102
{ACAD_REACTORS
330
183A
102
}
330
1F
100
AcDbEntity
  8
0
  6
Continuous
 62
     7
370
    15
100
AcDbLine
 10
61.57054938900228
 20
841.2167143659775
 30
0.0
 11
62.42388375807832
 21
845.1246320281801
 31
0.0
  0
ARC
  5
181D
102
{ACAD_REACTORS
330
183A
102
}
330
1F
100
AcDbEntity
  8
0
  6
Continuous
 62
     7
370
    15
100
AcDbCircle
 10
60.95841463475199
 20
845.4446324165837
 30
0.0
 40
1.499999999999988
100
AcDbArc
 50
347.6822188316618
 51
167.6822188316619
  0
LINE
  5
181E
102
{ACAD_REACTORS
330
183A
102
}
330
1F
100
AcDbEntity
  8
0
  6
Continuous
 62
     7
370
    15
100
AcDbLine
 10
58.63961114235053
 20
841.8567151427845
 30
0.0
 11
59.49294551142611
 21
845.7646328049872
 31
0.0
  0
ARC
  5
181F
102
{ACAD_REACTORS
330
183A
102
}
330
1F
100
AcDbEntity
  8
0
  6
Continuous
 62
     7
370
    15
100
AcDbCircle
 10
60.10508026567641
 20
841.5367147543815
 30
0.0
 40
1.500000000000077
100
AcDbArc
 50
167.6822188316788
 51
254.8725323669775
  0
ARC
  5
1820
102
{ACAD_REACTORS
330
183A
102
}
330
1F
100
AcDbEntity
  8
0
  6
Continuous
 62
     7
370
    15
100
AcDbCircle
 10
119.3214837809728
 20
830.6533246706975
 30
0.0
 40
60.35000000000013
100
AcDbArc
 50
171.0052399235121
 51
347.6822188316657
  0
LINE
  5
1821
102
{ACAD_REACTORS
330
183A
102
}
330
1F
100
AcDbEntity
  8
0
  6
Continuous
 62
     7
370
    15
100
AcDbLine
 10
178.2821915094523
 20
817.7786423772662
 30
0.0
 11
219.351093263017
 21
1005.857187372268
 31
0.0
  0
ARC
  5
1822
102
{ACAD_REACTORS
330
183A
102
}
330
1F
100
AcDbEntity
  8
0
  6
Continuous
 62
     7
370
    15
100
AcDbCircle
 10
219.4979370119095
 20
1007.349982372732
 30
0.0
 40
1.500000000000039
100
AcDbArc
 50
264.3819840094239
 51
347.6822188316788
  0
LINE
  5
1823
102
{ACAD_REACTORS
330
183A
102
}
330
1F
100
AcDbEntity
  8
0
  6
Continuous
 62
     7
370
    15
100
AcDbLine
 10
220.9634061352353
 20
1007.029981984329
 30
0.0
 11
221.8167405043109
 21
1010.937899646531
 31
0.0
  0
CIRCLE
  5
1824
102
{ACAD_REACTORS
330
183A
102
}
330
1F
100
AcDbEntity
  8
0
  6
Continuous
 62
     7
370
    15
100
AcDbCircle
 10
464.5391675682822
 20
792.0268556638661
 30
0.0
 40
1.249999999999943
  0
CIRCLE
  5
1825
102
{ACAD_REACTORS
330
183A
102
}
330
1F
100
AcDbEntity
  8
0
  6
Continuous
 62
     7
370
    15
100
AcDbCircle
 10
461.494595883185
 20
818.0136559119304
 30
0.0
 40
1.25
  0
CIRCLE
  5
1826
102
{ACAD_REACTORS
330
183A
102
}
330
1F
100
AcDbEntity
  8
0
  6
Continuous
 62
     7
370
    15
100
AcDbCircle
 10
475.8663118769955
 20
839.8777127923848
 30
0.0
 40
1.250000000000057
  0
CIRCLE
  5
1827
102
{ACAD_REACTORS
330
183A
102
}
330
1F
100
AcDbEntity
  8
0
  6
Continuous
 62
     7
370
    15
100
AcDbCircle
 10
453.5915605478694
 20
838.86393926785
 30
0.0
 40
1.25
  0
CIRCLE
  5
1828
102
{ACAD_REACTORS
330
183A
102
}
330
1F
100
AcDbEntity
  8
0
  6
Continuous
 62
     7
370
    15
100
AcDbCircle
 10
450.4663726740946
 20
784.9544484452352
 30
0.0
 40
1.250000000000057
  0
LINE
  5
1829
102
{ACAD_REACTORS
330
183A
102
}
330
1F
100
AcDbEntity
  8
0
  6
Continuous
 62
     7
370
    15
100
AcDbLine
 10
67.56100698348291
 20
884.929037855294
 30
0.0
 11
209.4015374392284
 21
1020.1964172194
 31
0.0
  0
ARC
  5
182A
102
{ACAD_REACTORS
330
183A
102
}
330
1F
100
AcDbEntity
  8
0
  6
Continuous
 62
     7
370
    15
100
AcDbCircle
 10
219.7536327987259
 20
1009.341274582481
 30
0.0
 40
15.00000000000001
100
AcDbArc
 50
347.6822188316656
 51
133.6411676086254
  0
LINE
  5
182B
102
{ACAD_REACTORS
330
183A
102
}
330
1F
100
AcDbEntity
  8
0
  6
Continuous
 62
     7
370
    15
100
AcDbLine
 10
210.5768404217692
 20
897.0029550605653
 30
0.0
 11
234.4083240319851
 21
1006.141270698446
 31
0.0
  0
ARC
  5
182C
102
{ACAD_REACTORS
330
183A
102
}
330
1F
100
AcDbEntity
  8
0
  6
Continuous
 62
     7
370
    15
100
AcDbCircle
 10
253.6435636099604
 20
887.5988892033419
 30
0.0
 40
44.081505201335
100
AcDbArc
 50
167.6822188316652
 51
266.6822188316652
  0
LINE
  5
182D
102
{ACAD_REACTORS
330
183A
102
}
330
1F
100
AcDbEntity
  8
0
  6
Continuous
 62
     7
370
    15
100
AcDbLine
 10
251.0923972115725
 20
843.5912688311486
 30
0.0
 11
350.841610854909
 21
837.8087057213901
 31
0.0
  0
ARC
  5
182E
102
{ACAD_REACTORS
330
183A
102
}
330
1F
100
AcDbEntity
  8
0
  6
Continuous
 62
     7
370
    15
100
AcDbCircle
 10
364.6482316294196
 20
1075.972914081699
 30
0.0
 40
238.5640646055134
100
AcDbArc
 50
266.682218831665
 51
296.6822188316656
  0
LINE
  5
182F
102
{ACAD_REACTORS
330
183A
102
}
330
1F
100
AcDbEntity
  8
0
  6
Continuous
 62
     7
370
    15
100
AcDbLine
 10
471.7734514784297
 20
862.8133489822056
 30
0.0
 11
483.4485364107713
 21
839.58206852196
 31
0.0
  0
ARC
  5
1830
102
{ACAD_REACTORS
330
183A
102
}
330
1F
100
AcDbEntity
  8
0
  6
Continuous
 62
     7
370
    15
100
AcDbCircle
 10
498.7159551684508
 20
809.2027017662543
 30
0.0
 40
33.99999999999999
100
AcDbArc
 50
116.6822188316662
 51
236.6822188316651
  0
LINE
  5
1831
102
{ACAD_REACTORS
330
183A
102
}
330
1F
100
AcDbEntity
  8
0
  6
Continuous
 62
     7
370
    15
100
AcDbLine
 10
465.7590246111222
 20
759.0644855211639
 30
0.0
 11
480.0403611859647
 21
780.7910458940363
 31
0.0
  0
ARC
  5
1832
102
{ACAD_REACTORS
330
183A
102
}
330
1F
100
AcDbEntity
  8
0
  6
Continuous
 62
     7
370
    15
100
AcDbCircle
 10
334.720036099824
 20
559.7115411961817
 30
0.0
 40
238.5640646055134
100
AcDbArc
 50
56.68221883166575
 51
86.68221883166497
  0
LINE
  5
1833
102
{ACAD_REACTORS
330
183A
102
}
330
1F
100
AcDbEntity
  8
0
  6
Continuous
 62
     7
370
    15
100
AcDbLine
 10
248.7774432309989
 20
803.6583126662484
 30
0.0
 11
348.5266568743355
 21
797.87574955649
 31
0.0
  0
ARC
  5
1834
102
{ACAD_REACTORS
330
183A
102
}
330
1F
100
AcDbEntity
  8
0
  6
Continuous
 62
     7
370
    15
100
AcDbCircle
 10
242.5971775619987
 20
697.0487298759944
 30
0.0
 40
106.788570673324
100
AcDbArc
 50
86.68221883166521
 51
132.697434036633
  0
ARC
  5
1835
102
{ACAD_REACTORS
330
183A
102
}
330
1F
100
AcDbEntity
  8
0
  6
Continuous
 62
     7
370
    15
100
AcDbCircle
 10
119.3214837809728
 20
830.6533246706975
 30
0.0
 40
75.00000000000011
100
AcDbArc
 50
133.6411676086256
 51
312.6974340366335
  0
CIRCLE
  5
1836
102
{ACAD_REACTORS
330
183A
102
}
330
1F
100
AcDbEntity
  8
0
  6
Continuous
 62
     7
370
    15
100
AcDbCircle
 10
444.8064643458356
 20
812.3278896400292
 30
0.0
 40
1.249999999999943
  0
CIRCLE
  5
1837
102
{ACAD_REACTORS
330
183A
102
}
330
1F
100
AcDbEntity
  8
0
  6
Continuous
 62
     7
370
    15
100
AcDbCircle
 10
466.7528423122058
 20
830.2127449965518
 30
0.0
 40
1.249999999999943
  0
CIRCLE
  5
1838
102
{ACAD_REACTORS
330
183A
102
}
330
1F
100
AcDbEntity
  8
0
  6
Continuous
 62
     7
370
    15
100
AcDbCircle
 10
460.7257947127255
 20
804.7518357215066
 30
0.0
 40
1.25
  0
CIRCLE
  5
1839
102
{ACAD_REACTORS
330
183A
102
}
330
1F
100
AcDbEntity
  8
0
  6
Continuous
 62
     7
370
    15
100
AcDbCircle
 10
472.474765404083
 20
781.3735361346652
 30
0.0
 40
1.25
  0
ARC
  5
183C
102
{ACAD_REACTORS
330
1864
102
}
330
1F
100
AcDbEntity
  8
0
  6
Continuous
 62
     7
370
    15
100
AcDbCircle
 10
497.8605751878132
 20
482.6576990549862
 30
0.0
 40
15.00000000000001
100
AcDbArc
 50
252.7925891536206
 51
72.7925891536224
  0
ARC
  5
183D
102
{ACAD_REACTORS
330
1864
102
}
330
1F
100
AcDbEntity
  8
0
  6
Continuous
 62
     7
370
    15
100
AcDbCircle
 10
273.1714708220139
 20
426.4363774385795
 30
0.0
 40
1.5000000000001
100
AcDbArc
 50
72.79258915361603
 51
152.2020813563598
  0
LINE
  5
183E
102
{ACAD_REACTORS
330
1864
102
}
330
1F
100
AcDbEntity
  8
0
  6
Continuous
 62
     7
370
    15
100
AcDbLine
 10
273.6152182321831
 20
427.8692375978313
 30
0.0
 11
277.4361786568521
 21
426.685911170715
 31
0.0
  0
ARC
  5
183F
102
{ACAD_REACTORS
330
1864
102
}
330
1F
100
AcDbEntity
  8
0
  6
Continuous
 62
     7
370
    15
100
AcDbCircle
 10
276.9924312466825
 20
425.2530510114642
 30
0.0
 40
1.500000000000044
100
AcDbArc
 50
252.7925891536882
 51
72.79258915357897
  0
LINE
  5
1840
102
{ACAD_REACTORS
330
1864
102
}
330
1F
100
AcDbEntity
  8
0
  6
Continuous
 62
     7
370
    15
100
AcDbLine
 10
272.7277234118452
 20
425.0035172793289
 30
0.0
 11
276.5486838365156
 21
423.8201908522129
 31
0.0
  0
ARC
  5
1841
102
{ACAD_REACTORS
330
1864
102
}
330
1F
100
AcDbEntity
  8
0
  6
Continuous
 62
     7
370
    15
100
AcDbCircle
 10
273.1714708220139
 20
426.4363774385795
 30
0.0
 40
1.50000000000001
100
AcDbArc
 50
165.6022756182865
 51
252.7925891536154
  0
ARC
  5
1842
102
{ACAD_REACTORS
330
1864
102
}
330
1F
100
AcDbEntity
  8
0
  6
Continuous
 62
     7
370
    15
100
AcDbCircle
 10
292.8836179722776
 20
483.3262876136394
 30
0.0
 40
60.35000000000017
100
AcDbArc
 50
72.79258915362107
 51
249.4695680617744
  0
LINE
  5
1843
102
{ACAD_REACTORS
330
1864
102
}
330
1F
100
AcDbEntity
  8
0
  6
Continuous
 62
     7
370
    15
100
AcDbLine
 10
310.7370554413925
 20
540.9750280208364
 30
0.0
 11
494.6305606976576
 21
484.024413421472
 31
0.0
  0
ARC
  5
1844
102
{ACAD_REACTORS
330
1864
102
}
330
1F
100
AcDbEntity
  8
0
  6
Continuous
 62
     7
370
    15
100
AcDbCircle
 10
496.0018655066634
 20
483.4165292871233
 30
0.0
 40
1.500000000000088
100
AcDbArc
 50
72.79258915357963
 51
156.0928239758308
  0
LINE
  5
1845
102
{ACAD_REACTORS
330
1864
102
}
330
1F
100
AcDbEntity
  8
0
  6
Continuous
 62
     7
370
    15
100
AcDbLine
 10
496.4456129168335
 20
484.849389446375
 30
0.0
 11
500.2665733415021
 21
483.6660630192592
 31
0.0
  0
ARC
  5
1846
102
{ACAD_REACTORS
330
1864
102
}
330
1F
100
AcDbEntity
  8
0
  6
Continuous
 62
     7
370
    15
100
AcDbCircle
 10
499.8228259313343
 20
482.2332028600086
 30
0.0
 40
1.500000000000039
100
AcDbArc
 50
252.7925891536154
 51
72.79258915365178
  0
LINE
  5
1847
102
{ACAD_REACTORS
330
1864
102
}
330
1F
100
AcDbEntity
  8
0
  6
Continuous
 62
     7
370
    15
100
AcDbLine
 10
495.5581180964961
 20
481.9836691278722
 30
0.0
 11
499.3790785211651
 21
480.8003427007566
 31
0.0
  0
ARC
  5
1848
102
{ACAD_REACTORS
330
1864
102
}
330
1F
100
AcDbEntity
  8
0
  6
Continuous
 62
     7
370
    15
100
AcDbCircle
 10
496.0018655066634
 20
483.4165292871233
 30
0.0
 40
1.500000000000047
100
AcDbArc
 50
169.492354331337
 51
252.7925891536703
  0
LINE
  5
1849
102
{ACAD_REACTORS
330
1864
102
}
330
1F
100
AcDbEntity
  8
0
  6
Continuous
 62
     7
370
    15
100
AcDbLine
 10
310.6335143790194
 20
540.6406939836788
 30
0.0
 11
494.5270196352836
 21
483.6900793843147
 31
0.0
  0
ARC
  5
184A
102
{ACAD_REACTORS
330
1864
102
}
330
1F
100
AcDbEntity
  8
0
  6
Continuous
 62
     7
370
    15
100
AcDbCircle
 10
292.8836179722776
 20
483.3262876136394
 30
0.0
 40
60.00000000000012
100
AcDbArc
 50
72.7925891536206
 51
249.4728779434365
  0
LINE
  5
184B
102
{ACAD_REACTORS
330
1864
102
}
330
1F
100
AcDbEntity
  8
0
  6
Continuous
 62
     7
370
    15
100
AcDbLine
 10
315.0709884807048
 20
554.9692955761882
 30
0.0
 11
502.2980492894986
 21
496.9863006474957
 31
0.0
  0
ARC
  5
184C
102
{ACAD_REACTORS
330
1864
102
}
330
1F
100
AcDbEntity
  8
0
  6
Continuous
 62
     7
370
    15
100
AcDbCircle
 10
292.8836179722776
 20
483.3262876136394
 30
0.0
 40
75.00000000000006
100
AcDbArc
 50
72.79258915362165
 51
252.7925891536221
  0
ARC
  5
184D
102
{ACAD_REACTORS
330
1864
102
}
330
1F
100
AcDbEntity
  8
0
  6
Continuous
 62
     7
370
    15
100
AcDbCircle
 10
275.1337215655359
 20
426.0118812436004
 30
0.0
 40
14.99999999999998
100
AcDbArc
 50
252.792589153615
 51
72.79258915362598
  0
ARC
  5
184E
102
{ACAD_REACTORS
330
1864
102
}
330
1F
100
AcDbEntity
  8
0
  6
Continuous
 62
     7
370
    15
100
AcDbCircle
 10
292.8836179722776
 20
483.3262876136394
 30
0.0
 40
45.00000000000011
100
AcDbArc
 50
72.79258915362124
 51
252.7925891536212
  0
LINE
  5
184F
102
{ACAD_REACTORS
330
1864
102
}
330
1F
100
AcDbEntity
  8
0
  6
Continuous
 62
     7
370
    15
100
AcDbLine
 10
306.196040277334
 20
526.3120923911692
 30
0.0
 11
493.4231010861273
 21
468.3290974624768
 31
0.0
  0
ARC
  5
1850
102
{ACAD_REACTORS
330
1864
102
}
330
1F
100
AcDbEntity
  8
0
  6
Continuous
 62
     7
370
    15
100
AcDbCircle
 10
284.5005087331011
 20
487.9954220903265
 30
0.0
 40
15.00000000000001
100
AcDbArc
 50
72.79258915362063
 51
252.7925891536206
  0
ARC
  5
1851
102
{ACAD_REACTORS
330
1864
102
}
330
1F
100
AcDbEntity
  8
0
  6
Continuous
 62
     7
370
    15
100
AcDbCircle
 10
509.1896130988999
 20
544.2167437067333
 30
0.0
 40
1.5000000000001
100
AcDbArc
 50
252.7925891536167
 51
332.2020813563501
  0
LINE
  5
1852
102
{ACAD_REACTORS
330
1864
102
}
330
1F
100
AcDbEntity
  8
0
  6
Continuous
 62
     7
370
    15
100
AcDbLine
 10
508.7458656887312
 20
542.7838835474822
 30
0.0
 11
504.9249052640622
 21
543.9672099745987
 31
0.0
  0
ARC
  5
1853
102
{ACAD_REACTORS
330
1864
102
}
330
1F
100
AcDbEntity
  8
0
  6
Continuous
 62
     7
370
    15
100
AcDbCircle
 10
505.3686526742314
 20
545.4000701338484
 30
0.0
 40
1.500000000000044
100
AcDbArc
 50
72.79258915368818
 51
252.7925891535783
  0
LINE
  5
1854
102
{ACAD_REACTORS
330
1864
102
}
330
1F
100
AcDbEntity
  8
0
  6
Continuous
 62
     7
370
    15
100
AcDbLine
 10
509.6333605090696
 20
545.6496038659848
 30
0.0
 11
505.8124000843983
 21
546.8329302930999
 31
0.0
  0
ARC
  5
1855
102
{ACAD_REACTORS
330
1864
102
}
330
1F
100
AcDbEntity
  8
0
  6
Continuous
 62
     7
370
    15
100
AcDbCircle
 10
509.1896130988999
 20
544.2167437067333
 30
0.0
 40
1.50000000000001
100
AcDbArc
 50
345.6022756182803
 51
72.7925891535975
  0
ARC
  5
1856
102
{ACAD_REACTORS
330
1864
102
}
330
1F
100
AcDbEntity
  8
0
  6
Continuous
 62
     7
370
    15
100
AcDbCircle
 10
489.4774659486367
 20
487.3268335316732
 30
0.0
 40
60.35000000000017
100
AcDbArc
 50
252.7925891536206
 51
69.46956806177435
  0
LINE
  5
1857
102
{ACAD_REACTORS
330
1864
102
}
330
1F
100
AcDbEntity
  8
0
  6
Continuous
 62
     7
370
    15
100
AcDbLine
 10
471.6240284795214
 20
429.6780931244762
 30
0.0
 11
287.7305232232576
 21
486.6287077238413
 31
0.0
  0
ARC
  5
1858
102
{ACAD_REACTORS
330
1864
102
}
330
1F
100
AcDbEntity
  8
0
  6
Continuous
 62
     7
370
    15
100
AcDbCircle
 10
286.3592184142504
 20
487.2365918581893
 30
0.0
 40
1.500000000000088
100
AcDbArc
 50
252.7925891535981
 51
336.0928239758861
  0
LINE
  5
1859
102
{ACAD_REACTORS
330
1864
102
}
330
1F
100
AcDbEntity
  8
0
  6
Continuous
 62
     7
370
    15
100
AcDbLine
 10
285.9154710040813
 20
485.8037316989387
 30
0.0
 11
282.0945105794118
 21
486.9870581260535
 31
0.0
  0
ARC
  5
185A
102
{ACAD_REACTORS
330
1864
102
}
330
1F
100
AcDbEntity
  8
0
  6
Continuous
 62
     7
370
    15
100
AcDbCircle
 10
282.5382579895805
 20
488.4199182853052
 30
0.0
 40
1.500000000000039
100
AcDbArc
 50
72.79258915363391
 51
252.7925891536339
  0
LINE
  5
185B
102
{ACAD_REACTORS
330
1864
102
}
330
1F
100
AcDbEntity
  8
0
  6
Continuous
 62
     7
370
    15
100
AcDbLine
 10
286.8029658244178
 20
488.6694520174404
 30
0.0
 11
282.9820053997488
 21
489.8527784445562
 31
0.0
  0
ARC
  5
185C
102
{ACAD_REACTORS
330
1864
102
}
330
1F
100
AcDbEntity
  8
0
  6
Continuous
 62
     7
370
    15
100
AcDbCircle
 10
286.3592184142504
 20
487.2365918581893
 30
0.0
 40
1.500000000000047
100
AcDbArc
 50
349.4923543313702
 51
72.79258915367238
  0
LINE
  5
185D
102
{ACAD_REACTORS
330
1864
102
}
330
1F
100
AcDbEntity
  8
0
  6
Continuous
 62
     7
370
    15
100
AcDbLine
 10
471.7275695418958
 20
430.0124271616344
 30
0.0
 11
287.8340642856307
 21
486.9630417609993
 31
0.0
  0
ARC
  5
185E
102
{ACAD_REACTORS
330
1864
102
}
330
1F
100
AcDbEntity
  8
0
  6
Continuous
 62
     7
370
    15
100
AcDbCircle
 10
489.4774659486367
 20
487.3268335316732
 30
0.0
 40
60.00000000000012
100
AcDbArc
 50
252.7925891536206
 51
69.47287794343707
  0
LINE
  5
185F
102
{ACAD_REACTORS
330
1864
102
}
330
1F
100
AcDbEntity
  8
0
  6
Continuous
 62
     7
370
    15
100
AcDbLine
 10
467.290095440209
 20
415.6838255691255
 30
0.0
 11
280.0630346314152
 21
473.6668204978169
 31
0.0
  0
ARC
  5
1860
102
{ACAD_REACTORS
330
1864
102
}
330
1F
100
AcDbEntity
  8
0
  6
Continuous
 62
     7
370
    15
100
AcDbCircle
 10
489.4774659486367
 20
487.3268335316732
 30
0.0
 40
75.00000000000006
100
AcDbArc
 50
252.7925891536212
 51
72.79258915362165
  0
ARC
  5
1861
102
{ACAD_REACTORS
330
1864
102
}
330
1F
100
AcDbEntity
  8
0
  6
Continuous
 62
     7
370
    15
100
AcDbCircle
 10
507.2273623553784
 20
544.6412399017122
 30
0.0
 40
14.99999999999998
100
AcDbArc
 50
72.79258915361869
 51
252.7925891536242
  0
ARC
  5
1862
102
{ACAD_REACTORS
330
1864
102
}
330
1F
100
AcDbEntity
  8
0
  6
Continuous
 62
     7
370
    15
100
AcDbCircle
 10
489.4774659486367
 20
487.3268335316732
 30
0.0
 40
45.00000000000011
100
AcDbArc
 50
252.7925891536212
 51
72.79258915362179
  0
LINE
  5
1863
102
{ACAD_REACTORS
330
1864
102
}
330
1F
100
AcDbEntity
  8
0
  6
Continuous
 62
     7
370
    15
100
AcDbLine
 10
476.1650436435804
 20
444.3410287541445
 30
0.0
 11
288.937982834787
 21
502.3240236828361
 31
0.0
  0
ARC
  5
1865
102
{ACAD_REACTORS
330
188D
102
}
330
1F
100
AcDbEntity
  8
0
  6
Continuous
 62
     7
370
    15
100
AcDbCircle
 10
507.0091806659595
 20
710.1879382681866
 30
0.0
 40
15.00000000000001
100
AcDbArc
 50
252.7925891536187
 51
72.7925891536222
  0
ARC
  5
1866
102
{ACAD_REACTORS
330
188D
102
}
330
1F
100
AcDbEntity
  8
0
  6
Continuous
 62
     7
370
    15
100
AcDbCircle
 10
282.3200763001598
 20
653.96661665178
 30
0.0
 40
1.5000000000001
100
AcDbArc
 50
72.79258915361667
 51
152.2020813563598
  0
LINE
  5
1867
102
{ACAD_REACTORS
330
188D
102
}
330
1F
100
AcDbEntity
  8
0
  6
Continuous
 62
     7
370
    15
100
AcDbLine
 10
282.7638237103294
 20
655.3994768110317
 30
0.0
 11
286.584784134998
 21
654.2161503839154
 31
0.0
  0
ARC
  5
1868
102
{ACAD_REACTORS
330
188D
102
}
330
1F
100
AcDbEntity
  8
0
  6
Continuous
 62
     7
370
    15
100
AcDbCircle
 10
286.1410367248283
 20
652.7832902246646
 30
0.0
 40
1.500000000000044
100
AcDbArc
 50
252.7925891536882
 51
72.79258915357963
  0
LINE
  5
1869
102
{ACAD_REACTORS
330
188D
102
}
330
1F
100
AcDbEntity
  8
0
  6
Continuous
 62
     7
370
    15
100
AcDbLine
 10
281.876328889991
 20
652.5337564925294
 30
0.0
 11
285.6972893146614
 21
651.3504300654133
 31
0.0
  0
ARC
  5
186A
102
{ACAD_REACTORS
330
188D
102
}
330
1F
100
AcDbEntity
  8
0
  6
Continuous
 62
     7
370
    15
100
AcDbCircle
 10
282.3200763001598
 20
653.96661665178
 30
0.0
 40
1.50000000000001
100
AcDbArc
 50
165.6022756182892
 51
252.7925891536154
  0
ARC
  5
186B
102
{ACAD_REACTORS
330
188D
102
}
330
1F
100
AcDbEntity
  8
0
  6
Continuous
 62
     7
370
    15
100
AcDbCircle
 10
302.0322234504239
 20
710.8565268268399
 30
0.0
 40
60.35000000000017
100
AcDbArc
 50
72.79258915362156
 51
249.4695680617744
  0
LINE
  5
186C
102
{ACAD_REACTORS
330
188D
102
}
330
1F
100
AcDbEntity
  8
0
  6
Continuous
 62
     7
370
    15
100
AcDbLine
 10
319.8856609195383
 20
768.5052672340369
 30
0.0
 11
503.7791661758039
 21
711.5546526346725
 31
0.0
  0
ARC
  5
186D
102
{ACAD_REACTORS
330
188D
102
}
330
1F
100
AcDbEntity
  8
0
  6
Continuous
 62
     7
370
    15
100
AcDbCircle
 10
505.1504709848097
 20
710.9467685003237
 30
0.0
 40
1.500000000000088
100
AcDbArc
 50
72.79258915357963
 51
156.0928239758308
  0
LINE
  5
186E
102
{ACAD_REACTORS
330
188D
102
}
330
1F
100
AcDbEntity
  8
0
  6
Continuous
 62
     7
370
    15
100
AcDbLine
 10
505.5942183949794
 20
712.3796286595755
 30
0.0
 11
509.4151788196479
 21
711.1963022324596
 31
0.0
  0
ARC
  5
186F
102
{ACAD_REACTORS
330
188D
102
}
330
1F
100
AcDbEntity
  8
0
  6
Continuous
 62
     7
370
    15
100
AcDbCircle
 10
508.9714314094801
 20
709.763442073209
 30
0.0
 40
1.500000000000039
100
AcDbArc
 50
252.7925891536154
 51
72.79258915365243
  0
LINE
  5
1870
102
{ACAD_REACTORS
330
188D
102
}
330
1F
100
AcDbEntity
  8
0
  6
Continuous
 62
     7
370
    15
100
AcDbLine
 10
504.7067235746419
 20
709.5139083410727
 30
0.0
 11
508.5276839993114
 21
708.3305819139571
 31
0.0
  0
ARC
  5
1871
102
{ACAD_REACTORS
330
188D
102
}
330
1F
100
AcDbEntity
  8
0
  6
Continuous
 62
     7
370
    15
100
AcDbCircle
 10
505.1504709848097
 20
710.9467685003237
 30
0.0
 40
1.500000000000047
100
AcDbArc
 50
169.4923543313348
 51
252.7925891536524
  0
LINE
  5
1872
102
{ACAD_REACTORS
330
188D
102
}
330
1F
100
AcDbEntity
  8
0
  6
Continuous
 62
     7
370
    15
100
AcDbLine
 10
319.7821198571657
 20
768.1709331968793
 30
0.0
 11
503.6756251134295
 21
711.2203185975152
 31
0.0
  0
ARC
  5
1873
102
{ACAD_REACTORS
330
188D
102
}
330
1F
100
AcDbEntity
  8
0
  6
Continuous
 62
     7
370
    15
100
AcDbCircle
 10
302.0322234504239
 20
710.8565268268399
 30
0.0
 40
60.00000000000012
100
AcDbArc
 50
72.79258915362063
 51
249.4728779434365
  0
LINE
  5
1874
102
{ACAD_REACTORS
330
188D
102
}
330
1F
100
AcDbEntity
  8
0
  6
Continuous
 62
     7
370
    15
100
AcDbLine
 10
324.2195939588511
 20
782.4995347893887
 30
0.0
 11
511.4466547676449
 21
724.5165398606962
 31
0.0
  0
ARC
  5
1875
102
{ACAD_REACTORS
330
188D
102
}
330
1F
100
AcDbEntity
  8
0
  6
Continuous
 62
     7
370
    15
100
AcDbCircle
 10
302.0322234504239
 20
710.8565268268399
 30
0.0
 40
75.00000000000006
100
AcDbArc
 50
72.79258915362166
 51
252.7925891536216
  0
ARC
  5
1876
102
{ACAD_REACTORS
330
188D
102
}
330
1F
100
AcDbEntity
  8
0
  6
Continuous
 62
     7
370
    15
100
AcDbCircle
 10
284.2823270436822
 20
653.5421204568008
 30
0.0
 40
14.99999999999998
100
AcDbArc
 50
252.7925891536151
 51
72.79258915362598
  0
ARC
  5
1877
102
{ACAD_REACTORS
330
188D
102
}
330
1F
100
AcDbEntity
  8
0
  6
Continuous
 62
     7
370
    15
100
AcDbCircle
 10
302.0322234504239
 20
710.8565268268399
 30
0.0
 40
45.00000000000011
100
AcDbArc
 50
72.79258915362121
 51
252.7925891536212
  0
LINE
  5
1878
102
{ACAD_REACTORS
330
188D
102
}
330
1F
100
AcDbEntity
  8
0
  6
Continuous
 62
     7
370
    15
100
AcDbLine
 10
315.3446457554803
 20
753.8423316043697
 30
0.0
 11
502.5717065642731
 21
695.8593366756772
 31
0.0
  0
ARC
  5
1879
102
{ACAD_REACTORS
330
188D
102
}
330
1F
100
AcDbEntity
  8
0
  6
Continuous
 62
     7
370
    15
100
AcDbCircle
 10
293.6491142112474
 20
715.5256613035269
 30
0.0
 40
15.00000000000001
100
AcDbArc
 50
72.7925891536222
 51
252.7925891536187
  0
ARC
  5
187A
102
{ACAD_REACTORS
330
188D
102
}
330
1F
100
AcDbEntity
  8
0
  6
Continuous
 62
     7
370
    15
100
AcDbCircle
 10
518.3382185770463
 20
771.7469829199338
 30
0.0
 40
1.5000000000001
100
AcDbArc
 50
252.7925891536167
 51
332.2020813563324
  0
LINE
  5
187B
102
{ACAD_REACTORS
330
188D
102
}
330
1F
100
AcDbEntity
  8
0
  6
Continuous
 62
     7
370
    15
100
AcDbLine
 10
517.8944711668776
 20
770.3141227606827
 30
0.0
 11
514.0735107422081
 21
771.4974491877992
 31
0.0
  0
ARC
  5
187C
102
{ACAD_REACTORS
330
188D
102
}
330
1F
100
AcDbEntity
  8
0
  6
Continuous
 62
     7
370
    15
100
AcDbCircle
 10
514.5172581523777
 20
772.9303093470489
 30
0.0
 40
1.500000000000044
100
AcDbArc
 50
72.79258915368818
 51
252.7925891535796
  0
LINE
  5
187D
102
{ACAD_REACTORS
330
188D
102
}
330
1F
100
AcDbEntity
  8
0
  6
Continuous
 62
     7
370
    15
100
AcDbLine
 10
518.7819659872159
 20
773.1798430791853
 30
0.0
 11
514.9610055625446
 21
774.3631695063004
 31
0.0
  0
ARC
  5
187E
102
{ACAD_REACTORS
330
188D
102
}
330
1F
100
AcDbEntity
  8
0
  6
Continuous
 62
     7
370
    15
100
AcDbCircle
 10
518.3382185770463
 20
771.7469829199338
 30
0.0
 40
1.50000000000001
100
AcDbArc
 50
345.6022756182791
 51
72.79258915361538
  0
ARC
  5
187F
102
{ACAD_REACTORS
330
188D
102
}
330
1F
100
AcDbEntity
  8
0
  6
Continuous
 62
     7
370
    15
100
AcDbCircle
 10
498.626071426783
 20
714.8570727448737
 30
0.0
 40
60.35000000000017
100
AcDbArc
 50
252.7925891536206
 51
69.46956806177428
  0
LINE
  5
1880
102
{ACAD_REACTORS
330
188D
102
}
330
1F
100
AcDbEntity
  8
0
  6
Continuous
 62
     7
370
    15
100
AcDbLine
 10
480.7726339576677
 20
657.2083323376767
 30
0.0
 11
296.8791287014039
 21
714.1589469370417
 31
0.0
  0
ARC
  5
1881
102
{ACAD_REACTORS
330
188D
102
}
330
1F
100
AcDbEntity
  8
0
  6
Continuous
 62
     7
370
    15
100
AcDbCircle
 10
295.5078238923963
 20
714.7668310713898
 30
0.0
 40
1.500000000000088
100
AcDbArc
 50
252.7925891536167
 51
336.0928239758881
  0
LINE
  5
1882
102
{ACAD_REACTORS
330
188D
102
}
330
1F
100
AcDbEntity
  8
0
  6
Continuous
 62
     7
370
    15
100
AcDbLine
 10
295.0640764822276
 20
713.3339709121392
 30
0.0
 11
291.2431160575581
 21
714.5172973392539
 31
0.0
  0
ARC
  5
1883
102
{ACAD_REACTORS
330
188D
102
}
330
1F
100
AcDbEntity
  8
0
  6
Continuous
 62
     7
370
    15
100
AcDbCircle
 10
291.6868634677268
 20
715.9501574985056
 30
0.0
 40
1.500000000000039
100
AcDbArc
 50
72.79258915365243
 51
252.7925891536154
  0
LINE
  5
1884
102
{ACAD_REACTORS
330
188D
102
}
330
1F
100
AcDbEntity
  8
0
  6
Continuous
 62
     7
370
    15
100
AcDbLine
 10
295.9515713025641
 20
716.1996912306408
 30
0.0
 11
292.1306108778946
 21
717.3830176577567
 31
0.0
  0
ARC
  5
1885
102
{ACAD_REACTORS
330
188D
102
}
330
1F
100
AcDbEntity
  8
0
  6
Continuous
 62
     7
370
    15
100
AcDbCircle
 10
295.5078238923963
 20
714.7668310713898
 30
0.0
 40
1.500000000000047
100
AcDbArc
 50
349.4923543313702
 51
72.79258915367238
  0
LINE
  5
1886
102
{ACAD_REACTORS
330
188D
102
}
330
1F
100
AcDbEntity
  8
0
  6
Continuous
 62
     7
370
    15
100
AcDbLine
 10
480.8761750200421
 20
657.5426663748349
 30
0.0
 11
296.9826697637765
 21
714.4932809741997
 31
0.0
  0
ARC
  5
1887
102
{ACAD_REACTORS
330
188D
102
}
330
1F
100
AcDbEntity
  8
0
  6
Continuous
 62
     7
370
    15
100
AcDbCircle
 10
498.626071426783
 20
714.8570727448737
 30
0.0
 40
60.00000000000012
100
AcDbArc
 50
252.79258915362
 51
69.47287794343745
  0
LINE
  5
1888
102
{ACAD_REACTORS
330
188D
102
}
330
1F
100
AcDbEntity
  8
0
  6
Continuous
 62
     7
370
    15
100
AcDbLine
 10
476.4387009183549
 20
643.214064782326
 30
0.0
 11
289.2116401095611
 21
701.1970597110173
 31
0.0
  0
ARC
  5
1889
102
{ACAD_REACTORS
330
188D
102
}
330
1F
100
AcDbEntity
  8
0
  6
Continuous
 62
     7
370
    15
100
AcDbCircle
 10
498.626071426783
 20
714.8570727448737
 30
0.0
 40
75.00000000000006
100
AcDbArc
 50
252.792589153621
 51
72.79258915362162
  0
ARC
  5
188A
102
{ACAD_REACTORS
330
188D
102
}
330
1F
100
AcDbEntity
  8
0
  6
Continuous
 62
     7
370
    15
100
AcDbCircle
 10
516.3759678335248
 20
772.1714791149127
 30
0.0
 40
14.99999999999998
100
AcDbArc
 50
72.79258915361869
 51
252.7925891536222
  0
ARC
  5
188B
102
{ACAD_REACTORS
330
188D
102
}
330
1F
100
AcDbEntity
  8
0
  6
Continuous
 62
     7
370
    15
100
AcDbCircle
 10
498.626071426783
 20
714.8570727448737
 30
0.0
 40
45.00000000000011
100
AcDbArc
 50
252.7925891536212
 51
72.79258915362244
  0
LINE
  5
188C
102
{ACAD_REACTORS
330
188D
102
}
330
1F
100
AcDbEntity
  8
0
  6
Continuous
 62
     7
370
    15
100
AcDbLine
 10
485.3136491217267
 20
671.8712679673449
 30
0.0
 11
298.0865883129329
 21
729.8542628960365
 31
0.0
  0
ARC
  5
188E
102
{ACAD_REACTORS
330
18B6
102
}
330
1F
100
AcDbEntity
  8
0
  6
Continuous
 62
     7
370
    15
100
AcDbCircle
 10
522.9284755886465
 20
936.745613665211
 30
0.0
 40
15.00000000000001
100
AcDbArc
 50
252.7925891536187
 51
72.79258915362253
  0
ARC
  5
188F
102
{ACAD_REACTORS
330
18B6
102
}
330
1F
100
AcDbEntity
  8
0
  6
Continuous
 62
     7
370
    15
100
AcDbCircle
 10
298.2393712228468
 20
880.5242920488043
 30
0.0
 40
1.5000000000001
100
AcDbArc
 50
72.79258915361667
 51
152.2020813563598
  0
LINE
  5
1890
102
{ACAD_REACTORS
330
18B6
102
}
330
1F
100
AcDbEntity
  8
0
  6
Continuous
 62
     7
370
    15
100
AcDbLine
 10
298.6831186330164
 20
881.9571522080561
 30
0.0
 11
302.504079057685
 21
880.7738257809398
 31
0.0
  0
ARC
  5
1891
102
{ACAD_REACTORS
330
18B6
102
}
330
1F
100
AcDbEntity
  8
0
  6
Continuous
 62
     7
370
    15
100
AcDbCircle
 10
302.0603316475153
 20
879.340965621689
 30
0.0
 40
1.500000000000044
100
AcDbArc
 50
252.7925891536882
 51
72.79258915357835
  0
LINE
  5
1892
102
{ACAD_REACTORS
330
18B6
102
}
330
1F
100
AcDbEntity
  8
0
  6
Continuous
 62
     7
370
    15
100
AcDbLine
 10
297.7956238126781
 20
879.0914318895537
 30
0.0
 11
301.6165842373484
 21
877.9081054624377
 31
0.0
  0
ARC
  5
1893
102
{ACAD_REACTORS
330
18B6
102
}
330
1F
100
AcDbEntity
  8
0
  6
Continuous
 62
     7
370
    15
100
AcDbCircle
 10
298.2393712228468
 20
880.5242920488043
 30
0.0
 40
1.50000000000001
100
AcDbArc
 50
165.6022756182876
 51
252.7925891536141
  0
ARC
  5
1894
102
{ACAD_REACTORS
330
18B6
102
}
330
1F
100
AcDbEntity
  8
0
  6
Continuous
 62
     7
370
    15
100
AcDbCircle
 10
317.951518373111
 20
937.4142022238642
 30
0.0
 40
60.35000000000017
100
AcDbArc
 50
72.79258915362156
 51
249.4695680617744
  0
LINE
  5
1895
102
{ACAD_REACTORS
330
18B6
102
}
330
1F
100
AcDbEntity
  8
0
  6
Continuous
 62
     7
370
    15
100
AcDbLine
 10
335.8049558422254
 20
995.0629426310612
 30
0.0
 11
519.698461098491
 21
938.1123280316968
 31
0.0
  0
ARC
  5
1896
102
{ACAD_REACTORS
330
18B6
102
}
330
1F
100
AcDbEntity
  8
0
  6
Continuous
 62
     7
370
    15
100
AcDbCircle
 10
521.0697659074967
 20
937.5044438973481
 30
0.0
 40
1.500000000000088
100
AcDbArc
 50
72.79258915358092
 51
156.0928239758321
  0
LINE
  5
1897
102
{ACAD_REACTORS
330
18B6
102
}
330
1F
100
AcDbEntity
  8
0
  6
Continuous
 62
     7
370
    15
100
AcDbLine
 10
521.5135133176664
 20
938.9373040565998
 30
0.0
 11
525.3344737423349
 21
937.753977629484
 31
0.0
  0
ARC
  5
1898
102
{ACAD_REACTORS
330
18B6
102
}
330
1F
100
AcDbEntity
  8
0
  6
Continuous
 62
     7
370
    15
100
AcDbCircle
 10
524.8907263321671
 20
936.3211174702334
 30
0.0
 40
1.500000000000039
100
AcDbArc
 50
252.7925891536167
 51
72.79258915365243
  0
LINE
  5
1899
102
{ACAD_REACTORS
330
18B6
102
}
330
1F
100
AcDbEntity
  8
0
  6
Continuous
 62
     7
370
    15
100
AcDbLine
 10
520.6260184973289
 20
936.071583738097
 30
0.0
 11
524.4469789219984
 21
934.8882573109814
 31
0.0
  0
ARC
  5
189A
102
{ACAD_REACTORS
330
18B6
102
}
330
1F
100
AcDbEntity
  8
0
  6
Continuous
 62
     7
370
    15
100
AcDbCircle
 10
521.0697659074967
 20
937.5044438973481
 30
0.0
 40
1.500000000000047
100
AcDbArc
 50
169.492354331336
 51
252.7925891536524
  0
LINE
  5
189B
102
{ACAD_REACTORS
330
18B6
102
}
330
1F
100
AcDbEntity
  8
0
  6
Continuous
 62
     7
370
    15
100
AcDbLine
 10
335.7014147798527
 20
994.7286085939037
 30
0.0
 11
519.5949200361165
 21
937.7779939945395
 31
0.0
  0
ARC
  5
189C
102
{ACAD_REACTORS
330
18B6
102
}
330
1F
100
AcDbEntity
  8
0
  6
Continuous
 62
     7
370
    15
100
AcDbCircle
 10
317.951518373111
 20
937.4142022238642
 30
0.0
 40
60.00000000000012
100
AcDbArc
 50
72.79258915362063
 51
249.4728779434366
  0
LINE
  5
189D
102
{ACAD_REACTORS
330
18B6
102
}
330
1F
100
AcDbEntity
  8
0
  6
Continuous
 62
     7
370
    15
100
AcDbLine
 10
340.1388888815382
 20
1009.057210186413
 30
0.0
 11
527.365949690332
 21
951.0742152577205
 31
0.0
  0
ARC
  5
189E
102
{ACAD_REACTORS
330
18B6
102
}
330
1F
100
AcDbEntity
  8
0
  6
Continuous
 62
     7
370
    15
100
AcDbCircle
 10
317.951518373111
 20
937.4142022238642
 30
0.0
 40
75.00000000000006
100
AcDbArc
 50
72.79258915362166
 51
252.7925891536216
  0
ARC
  5
189F
102
{ACAD_REACTORS
330
18B6
102
}
330
1F
100
AcDbEntity
  8
0
  6
Continuous
 62
     7
370
    15
100
AcDbCircle
 10
300.2016219663692
 20
880.0997958538252
 30
0.0
 40
14.99999999999998
100
AcDbArc
 50
252.7925891536151
 51
72.79258915362585
  0
ARC
  5
18A0
102
{ACAD_REACTORS
330
18B6
102
}
330
1F
100
AcDbEntity
  8
0
  6
Continuous
 62
     7
370
    15
100
AcDbCircle
 10
317.951518373111
 20
937.4142022238642
 30
0.0
 40
45.00000000000011
100
AcDbArc
 50
72.79258915362125
 51
252.7925891536212
  0
LINE
  5
18A1
102
{ACAD_REACTORS
330
18B6
102
}
330
1F
100
AcDbEntity
  8
0
  6
Continuous
 62
     7
370
    15
100
AcDbLine
 10
331.2639406781673
 20
980.4000070013941
 30
0.0
 11
518.4910014869602
 21
922.4170120727016
 31
0.0
  0
ARC
  5
18A2
102
{ACAD_REACTORS
330
18B6
102
}
330
1F
100
AcDbEntity
  8
0
  6
Continuous
 62
     7
370
    15
100
AcDbCircle
 10
309.5684091339344
 20
942.0833367005513
 30
0.0
 40
15.00000000000001
100
AcDbArc
 50
72.79258915362227
 51
252.7925891536187
  0
ARC
  5
18A3
102
{ACAD_REACTORS
330
18B6
102
}
330
1F
100
AcDbEntity
  8
0
  6
Continuous
 62
     7
370
    15
100
AcDbCircle
 10
534.2575134997332
 20
998.3046583169581
 30
0.0
 40
1.5000000000001
100
AcDbArc
 50
252.7925891536167
 51
332.2020813563444
  0
LINE
  5
18A4
102
{ACAD_REACTORS
330
18B6
102
}
330
1F
100
AcDbEntity
  8
0
  6
Continuous
 62
     7
370
    15
100
AcDbLine
 10
533.8137660895645
 20
996.8717981577071
 30
0.0
 11
529.9928056648951
 21
998.0551245848236
 31
0.0
  0
ARC
  5
18A5
102
{ACAD_REACTORS
330
18B6
102
}
330
1F
100
AcDbEntity
  8
0
  6
Continuous
 62
     7
370
    15
100
AcDbCircle
 10
530.4365530750647
 20
999.4879847440733
 30
0.0
 40
1.500000000000044
100
AcDbArc
 50
72.79258915368818
 51
252.7925891535783
  0
LINE
  5
18A6
102
{ACAD_REACTORS
330
18B6
102
}
330
1F
100
AcDbEntity
  8
0
  6
Continuous
 62
     7
370
    15
100
AcDbLine
 10
534.7012609099029
 20
999.7375184762096
 30
0.0
 11
530.8803004852316
 21
1000.920844903325
 31
0.0
  0
ARC
  5
18A7
102
{ACAD_REACTORS
330
18B6
102
}
330
1F
100
AcDbEntity
  8
0
  6
Continuous
 62
     7
370
    15
100
AcDbCircle
 10
534.2575134997332
 20
998.3046583169581
 30
0.0
 40
1.50000000000001
100
AcDbArc
 50
345.6022756182875
 51
72.7925891536141
  0
ARC
  5
18A8
102
{ACAD_REACTORS
330
18B6
102
}
330
1F
100
AcDbEntity
  8
0
  6
Continuous
 62
     7
370
    15
100
AcDbCircle
 10
514.54536634947
 20
941.414748141898
 30
0.0
 40
60.35000000000017
100
AcDbArc
 50
252.7925891536207
 51
69.46956806177438
  0
LINE
  5
18A9
102
{ACAD_REACTORS
330
18B6
102
}
330
1F
100
AcDbEntity
  8
0
  6
Continuous
 62
     7
370
    15
100
AcDbLine
 10
496.6919288803547
 20
883.766007734701
 30
0.0
 11
312.7984236240909
 21
940.7166223340661
 31
0.0
  0
ARC
  5
18AA
102
{ACAD_REACTORS
330
18B6
102
}
330
1F
100
AcDbEntity
  8
0
  6
Continuous
 62
     7
370
    15
100
AcDbCircle
 10
311.4271188150833
 20
941.3245064684141
 30
0.0
 40
1.500000000000088
100
AcDbArc
 50
252.7925891536167
 51
336.0928239758859
  0
LINE
  5
18AB
102
{ACAD_REACTORS
330
18B6
102
}
330
1F
100
AcDbEntity
  8
0
  6
Continuous
 62
     7
370
    15
100
AcDbLine
 10
310.9833714049146
 20
939.8916463091635
 30
0.0
 11
307.1624109802451
 21
941.0749727362783
 31
0.0
  0
ARC
  5
18AC
102
{ACAD_REACTORS
330
18B6
102
}
330
1F
100
AcDbEntity
  8
0
  6
Continuous
 62
     7
370
    15
100
AcDbCircle
 10
307.6061583904138
 20
942.50783289553
 30
0.0
 40
1.500000000000039
100
AcDbArc
 50
72.79258915365243
 51
252.7925891536167
  0
LINE
  5
18AD
102
{ACAD_REACTORS
330
18B6
102
}
330
1F
100
AcDbEntity
  8
0
  6
Continuous
 62
     7
370
    15
100
AcDbLine
 10
311.8708662252511
 20
942.7573666276652
 30
0.0
 11
308.0499058005817
 21
943.940693054781
 31
0.0
  0
ARC
  5
18AE
102
{ACAD_REACTORS
330
18B6
102
}
330
1F
100
AcDbEntity
  8
0
  6
Continuous
 62
     7
370
    15
100
AcDbCircle
 10
311.4271188150833
 20
941.3245064684141
 30
0.0
 40
1.500000000000047
100
AcDbArc
 50
349.4923543313702
 51
72.79258915367159
  0
LINE
  5
18AF
102
{ACAD_REACTORS
330
18B6
102
}
330
1F
100
AcDbEntity
  8
0
  6
Continuous
 62
     7
370
    15
100
AcDbLine
 10
496.7954699427291
 20
884.1003417718592
 30
0.0
 11
312.9019646864635
 21
941.0509563712241
 31
0.0
  0
ARC
  5
18B0
102
{ACAD_REACTORS
330
18B6
102
}
330
1F
100
AcDbEntity
  8
0
  6
Continuous
 62
     7
370
    15
100
AcDbCircle
 10
514.54536634947
 20
941.414748141898
 30
0.0
 40
60.00000000000012
100
AcDbArc
 50
252.7925891536201
 51
69.4728779434375
  0
LINE
  5
18B1
102
{ACAD_REACTORS
330
18B6
102
}
330
1F
100
AcDbEntity
  8
0
  6
Continuous
 62
     7
370
    15
100
AcDbLine
 10
492.3579958410419
 20
869.7717401793503
 30
0.0
 11
305.1309350322481
 21
927.7547351080417
 31
0.0
  0
ARC
  5
18B2
102
{ACAD_REACTORS
330
18B6
102
}
330
1F
100
AcDbEntity
  8
0
  6
Continuous
 62
     7
370
    15
100
AcDbCircle
 10
514.54536634947
 20
941.414748141898
 30
0.0
 40
75.00000000000006
100
AcDbArc
 50
252.792589153621
 51
72.79258915362166
  0
ARC
  5
18B3
102
{ACAD_REACTORS
330
18B6
102
}
330
1F
100
AcDbEntity
  8
0
  6
Continuous
 62
     7
370
    15
100
AcDbCircle
 10
532.2952627562117
 20
998.729154511937
 30
0.0
 40
14.99999999999998
100
AcDbArc
 50
72.79258915361869
 51
252.7925891536223
  0
ARC
  5
18B4
102
{ACAD_REACTORS
330
18B6
102
}
330
1F
100
AcDbEntity
  8
0
  6
Continuous
 62
     7
370
    15
100
AcDbCircle
 10
514.54536634947
 20
941.414748141898
 30
0.0
 40
45.00000000000011
100
AcDbArc
 50
252.7925891536212
 51
72.79258915362244
  0
LINE
  5
18B5
102
{ACAD_REACTORS
330
18B6
102
}
330
1F
100
AcDbEntity
  8
0
  6
Continuous
 62
     7
370
    15
100
AcDbLine
 10
501.2329440444137
 20
898.4289433643693
 30
0.0
 11
314.0058832356199
 21
956.4119382930609
 31
0.0
  0
ARC
  5
18B7
102
{ACAD_REACTORS
330
18DB
102
}
330
1F
100
AcDbEntity
  8
0
  6
Continuous
 62
     7
370
    15
100
AcDbCircle
 10
863.3656013345111
 20
854.5862195792308
 30
0.0
 40
1.499999999999979
100
AcDbArc
 50
257.6822188316439
 51
77.68221883167972
  0
LINE
  5
18B8
102
{ACAD_REACTORS
330
18DB
102
}
330
1F
100
AcDbEntity
  8
0
  6
Continuous
 62
     7
370
    15
100
AcDbLine
 10
859.7776840607115
 20
856.9050230716332
 30
0.0
 11
863.6856017229142
 21
856.0516887025572
 31
0.0
  0
ARC
  5
18B9
102
{ACAD_REACTORS
330
18DB
102
}
330
1F
100
AcDbEntity
  8
0
  6
Continuous
 62
     7
370
    15
100
AcDbCircle
 10
859.4576836723085
 20
855.4395539483069
 30
0.0
 40
1.500000000000044
100
AcDbArc
 50
77.68221883168064
 51
160.9824536539084
  0
LINE
  5
18BA
102
{ACAD_REACTORS
330
18DB
102
}
330
1F
100
AcDbEntity
  8
0
  6
Continuous
 62
     7
370
    15
100
AcDbLine
 10
669.9610104341358
 20
896.9972422462067
 30
0.0
 11
858.0395554291375
 21
855.9283404926421
 31
0.0
  0
ARC
  5
18BB
102
{ACAD_REACTORS
330
18DB
102
}
330
1F
100
AcDbEntity
  8
0
  6
Continuous
 62
     7
370
    15
100
AcDbCircle
 10
682.7610259702736
 20
955.6160071792435
 30
0.0
 40
60.00000000000009
100
AcDbArc
 50
81.0019300418499
 51
257.6822188316657
  0
ARC
  5
18BC
102
{ACAD_REACTORS
330
18DB
102
}
330
1F
100
AcDbEntity
  8
0
  6
Continuous
 62
     7
370
    15
100
AcDbCircle
 10
693.6444160539571
 20
1014.83241069454
 30
0.0
 40
1.500000000000017
100
AcDbArc
 50
178.2727266289218
 51
257.6822188316448
  0
LINE
  5
18BD
102
{ACAD_REACTORS
330
18DB
102
}
330
1F
100
AcDbEntity
  8
0
  6
Continuous
 62
     7
370
    15
100
AcDbLine
 10
693.3244156655531
 20
1013.366941571214
 30
0.0
 11
697.2323333277558
 21
1012.513607202138
 31
0.0
  0
ARC
  5
18BE
102
{ACAD_REACTORS
330
18DB
102
}
330
1F
100
AcDbEntity
  8
0
  6
Continuous
 62
     7
370
    15
100
AcDbCircle
 10
697.5523337161598
 20
1013.979076325464
 30
0.0
 40
1.499999999999988
100
AcDbArc
 50
257.6822188316439
 51
77.68221883167972
  0
LINE
  5
18BF
102
{ACAD_REACTORS
330
18DB
102
}
330
1F
100
AcDbEntity
  8
0
  6
Continuous
 62
     7
370
    15
100
AcDbLine
 10
693.9644164423602
 20
1016.297879817866
 30
0.0
 11
697.8723341045628
 21
1015.44454544879
 31
0.0
  0
ARC
  5
18C0
102
{ACAD_REACTORS
330
18DB
102
}
330
1F
100
AcDbEntity
  8
0
  6
Continuous
 62
     7
370
    15
100
AcDbCircle
 10
693.6444160539571
 20
1014.83241069454
 30
0.0
 40
1.500000000000077
100
AcDbArc
 50
77.68221883168064
 51
164.8725323669775
  0
ARC
  5
18C1
102
{ACAD_REACTORS
330
18DB
102
}
330
1F
100
AcDbEntity
  8
0
  6
Continuous
 62
     7
370
    15
100
AcDbCircle
 10
682.7610259702736
 20
955.6160071792435
 30
0.0
 40
60.35000000000013
100
AcDbArc
 50
81.00523992351204
 51
257.6822188316654
  0
LINE
  5
18C2
102
{ACAD_REACTORS
330
18DB
102
}
330
1F
100
AcDbEntity
  8
0
  6
Continuous
 62
     7
370
    15
100
AcDbLine
 10
669.8863436768419
 20
896.655299450764
 30
0.0
 11
857.9648886718445
 21
855.5863976971993
 31
0.0
  0
ARC
  5
18C3
102
{ACAD_REACTORS
330
18DB
102
}
330
1F
100
AcDbEntity
  8
0
  6
Continuous
 62
     7
370
    15
100
AcDbCircle
 10
859.4576836723085
 20
855.4395539483069
 30
0.0
 40
1.500000000000039
100
AcDbArc
 50
174.3819840094235
 51
257.6822188316806
  0
LINE
  5
18C4
102
{ACAD_REACTORS
330
18DB
102
}
330
1F
100
AcDbEntity
  8
0
  6
Continuous
 62
     7
370
    15
100
AcDbLine
 10
859.1376832839054
 20
853.974084824981
 30
0.0
 11
863.0456009461071
 21
853.1207504559054
 31
0.0
  0
CIRCLE
  5
18C5
102
{ACAD_REACTORS
330
18DB
102
}
330
1F
100
AcDbEntity
  8
0
  6
Continuous
 62
     7
370
    15
100
AcDbCircle
 10
644.1345569634417
 20
610.3983233919341
 30
0.0
 40
1.249999999999943
  0
CIRCLE
  5
18C6
102
{ACAD_REACTORS
330
18DB
102
}
330
1F
100
AcDbEntity
  8
0
  6
Continuous
 62
     7
370
    15
100
AcDbCircle
 10
670.121357211506
 20
613.4428950770309
 30
0.0
 40
1.25
  0
CIRCLE
  5
18C7
102
{ACAD_REACTORS
330
18DB
102
}
330
1F
100
AcDbEntity
  8
0
  6
Continuous
 62
     7
370
    15
100
AcDbCircle
 10
691.9854140919609
 20
599.0711790832208
 30
0.0
 40
1.250000000000057
  0
CIRCLE
  5
18C8
102
{ACAD_REACTORS
330
18DB
102
}
330
1F
100
AcDbEntity
  8
0
  6
Continuous
 62
     7
370
    15
100
AcDbCircle
 10
690.9716405674257
 20
621.3459304123469
 30
0.0
 40
1.25
  0
CIRCLE
  5
18C9
102
{ACAD_REACTORS
330
18DB
102
}
330
1F
100
AcDbEntity
  8
0
  6
Continuous
 62
     7
370
    15
100
AcDbCircle
 10
637.0621497448113
 20
624.4711182861217
 30
0.0
 40
1.250000000000057
  0
LINE
  5
18CA
102
{ACAD_REACTORS
330
18DB
102
}
330
1F
100
AcDbEntity
  8
0
  6
Continuous
 62
     7
370
    15
100
AcDbLine
 10
737.0367391548701
 20
1007.376483976733
 30
0.0
 11
872.3041185189762
 21
865.535953520988
 31
0.0
  0
ARC
  5
18CB
102
{ACAD_REACTORS
330
18DB
102
}
330
1F
100
AcDbEntity
  8
0
  6
Continuous
 62
     7
370
    15
100
AcDbCircle
 10
861.4489758820567
 20
855.1838581614904
 30
0.0
 40
15.00000000000001
100
AcDbArc
 50
257.6822188316657
 51
43.64116760862665
  0
LINE
  5
18CC
102
{ACAD_REACTORS
330
18DB
102
}
330
1F
100
AcDbEntity
  8
0
  6
Continuous
 62
     7
370
    15
100
AcDbLine
 10
749.110656360141
 20
864.3606505384471
 30
0.0
 11
858.2489719980225
 21
840.5291669282312
 31
0.0
  0
ARC
  5
18CD
102
{ACAD_REACTORS
330
18DB
102
}
330
1F
100
AcDbEntity
  8
0
  6
Continuous
 62
     7
370
    15
100
AcDbCircle
 10
739.706590502918
 20
821.2939273502554
 30
0.0
 40
44.081505201335
100
AcDbArc
 50
77.68221883166578
 51
176.6822188316652
  0
LINE
  5
18CE
102
{ACAD_REACTORS
330
18DB
102
}
330
1F
100
AcDbEntity
  8
0
  6
Continuous
 62
     7
370
    15
100
AcDbLine
 10
695.6989701307242
 20
823.8450937486434
 30
0.0
 11
689.9164070209657
 21
724.0958801053068
 31
0.0
  0
ARC
  5
18CF
102
{ACAD_REACTORS
330
18DB
102
}
330
1F
100
AcDbEntity
  8
0
  6
Continuous
 62
     7
370
    15
100
AcDbCircle
 10
928.0806153812749
 20
710.2892593307963
 30
0.0
 40
238.5640646055134
100
AcDbArc
 50
176.682218831665
 51
206.6822188316655
  0
LINE
  5
18D0
102
{ACAD_REACTORS
330
18DB
102
}
330
1F
100
AcDbEntity
  8
0
  6
Continuous
 62
     7
370
    15
100
AcDbLine
 10
714.9210502817817
 20
603.1640394817866
 30
0.0
 11
691.6897698215356
 21
591.4889545494445
 31
0.0
  0
ARC
  5
18D1
102
{ACAD_REACTORS
330
18DB
102
}
330
1F
100
AcDbEntity
  8
0
  6
Continuous
 62
     7
370
    15
100
AcDbCircle
 10
661.31040306583
 20
576.2215357917651
 30
0.0
 40
33.99999999999999
100
AcDbArc
 50
26.68221883166601
 51
146.6822188316648
  0
LINE
  5
18D2
102
{ACAD_REACTORS
330
18DB
102
}
330
1F
100
AcDbEntity
  8
0
  6
Continuous
 62
     7
370
    15
100
AcDbLine
 10
611.17218682074
 20
609.1784663490937
 30
0.0
 11
632.8987471936119
 21
594.8971297742512
 31
0.0
  0
ARC
  5
18D3
102
{ACAD_REACTORS
330
18DB
102
}
330
1F
100
AcDbEntity
  8
0
  6
Continuous
 62
     7
370
    15
100
AcDbCircle
 10
411.8192424957573
 20
740.2174548603921
 30
0.0
 40
238.5640646055134
100
AcDbArc
 50
326.6822188316658
 51
356.682218831665
  0
LINE
  5
18D4
102
{ACAD_REACTORS
330
18DB
102
}
330
1F
100
AcDbEntity
  8
0
  6
Continuous
 62
     7
370
    15
100
AcDbLine
 10
655.7660139658241
 20
826.1600477292175
 30
0.0
 11
649.9834508560656
 21
726.4108340858809
 31
0.0
  0
ARC
  5
18D5
102
{ACAD_REACTORS
330
18DB
102
}
330
1F
100
AcDbEntity
  8
0
  6
Continuous
 62
     7
370
    15
100
AcDbCircle
 10
549.1564311755704
 20
832.3403133982176
 30
0.0
 40
106.788570673324
100
AcDbArc
 50
356.6822188316652
 51
42.69743403663303
  0
ARC
  5
18D6
102
{ACAD_REACTORS
330
18DB
102
}
330
1F
100
AcDbEntity
  8
0
  6
Continuous
 62
     7
370
    15
100
AcDbCircle
 10
682.7610259702736
 20
955.6160071792435
 30
0.0
 40
75.00000000000011
100
AcDbArc
 50
43.64116760862542
 51
222.6974340366333
  0
CIRCLE
  5
18D7
102
{ACAD_REACTORS
330
18DB
102
}
330
1F
100
AcDbEntity
  8
0
  6
Continuous
 62
     7
370
    15
100
AcDbCircle
 10
664.4355909396048
 20
630.1310266143803
 30
0.0
 40
1.249999999999943
  0
CIRCLE
  5
18D8
102
{ACAD_REACTORS
330
18DB
102
}
330
1F
100
AcDbEntity
  8
0
  6
Continuous
 62
     7
370
    15
100
AcDbCircle
 10
682.3204462961279
 20
608.1846486480106
 30
0.0
 40
1.249999999999943
  0
CIRCLE
  5
18D9
102
{ACAD_REACTORS
330
18DB
102
}
330
1F
100
AcDbEntity
  8
0
  6
Continuous
 62
     7
370
    15
100
AcDbCircle
 10
656.8595370210827
 20
614.2116962474904
 30
0.0
 40
1.25
  0
CIRCLE
  5
18DA
102
{ACAD_REACTORS
330
18DB
102
}
330
1F
100
AcDbEntity
  8
0
  6
Continuous
 62
     7
370
    15
100
AcDbCircle
 10
633.4812374342413
 20
602.4627255561329
 30
0.0
 40
1.25
  0
ARC
  5
18DC
102
{ACAD_REACTORS
330
1900
102
}
330
1F
100
AcDbEntity
  8
0
  6
Continuous
 62
     7
370
    15
100
AcDbCircle
 10
976.3370357213768
 20
703.8827424865393
 30
0.0
 40
1.499999999999979
100
AcDbArc
 50
267.9616626066596
 51
87.96166260669008
  0
LINE
  5
18DD
102
{ACAD_REACTORS
330
1900
102
}
330
1F
100
AcDbEntity
  8
0
  6
Continuous
 62
     7
370
    15
100
AcDbLine
 10
972.3929190075661
 20
705.5240661437884
 30
0.0
 11
976.3903880138377
 21
705.3817933638913
 31
0.0
  0
ARC
  5
18DE
102
{ACAD_REACTORS
330
1900
102
}
330
1F
100
AcDbEntity
  8
0
  6
Continuous
 62
     7
370
    15
100
AcDbCircle
 10
972.3395667151053
 20
704.0250152664363
 30
0.0
 40
1.500000000000044
100
AcDbArc
 50
87.96166260669442
 51
171.2618974289227
  0
LINE
  5
18DF
102
{ACAD_REACTORS
330
1900
102
}
330
1F
100
AcDbEntity
  8
0
  6
Continuous
 62
     7
370
    15
100
AcDbLine
 10
778.4685443450625
 20
711.100134360456
 30
0.0
 11
970.8569770988919
 21
704.2528924919295
 31
0.0
  0
ARC
  5
18E0
102
{ACAD_REACTORS
330
1900
102
}
330
1F
100
AcDbEntity
  8
0
  6
Continuous
 62
     7
370
    15
100
AcDbCircle
 10
780.6026360435148
 20
771.062169454527
 30
0.0
 40
60.00000000000009
100
AcDbArc
 50
91.28137381686341
 51
267.961662606679
  0
ARC
  5
18E1
102
{ACAD_REACTORS
330
1900
102
}
330
1F
100
AcDbEntity
  8
0
  6
Continuous
 62
     7
370
    15
100
AcDbCircle
 10
780.7442176729517
 20
831.2702302075709
 30
0.0
 40
1.500000000000017
100
AcDbArc
 50
188.5521704039318
 51
267.9616626066597
  0
LINE
  5
18E2
102
{ACAD_REACTORS
330
1900
102
}
330
1F
100
AcDbEntity
  8
0
  6
Continuous
 62
     7
370
    15
100
AcDbLine
 10
780.6908653804899
 20
829.7711793302192
 30
0.0
 11
784.6883343867615
 21
829.6289065503221
 31
0.0
  0
ARC
  5
18E3
102
{ACAD_REACTORS
330
1900
102
}
330
1F
100
AcDbEntity
  8
0
  6
Continuous
 62
     7
370
    15
100
AcDbCircle
 10
784.7416866792232
 20
831.1279574276743
 30
0.0
 40
1.499999999999988
100
AcDbArc
 50
267.9616626066596
 51
87.96166260669008
  0
LINE
  5
18E4
102
{ACAD_REACTORS
330
1900
102
}
330
1F
100
AcDbEntity
  8
0
  6
Continuous
 62
     7
370
    15
100
AcDbLine
 10
780.7975699654127
 20
832.7692810849226
 30
0.0
 11
784.7950389716842
 21
832.627008305026
 31
0.0
  0
ARC
  5
18E5
102
{ACAD_REACTORS
330
1900
102
}
330
1F
100
AcDbEntity
  8
0
  6
Continuous
 62
     7
370
    15
100
AcDbCircle
 10
780.7442176729517
 20
831.2702302075709
 30
0.0
 40
1.500000000000077
100
AcDbArc
 50
87.96166260669457
 51
175.1519761419792
  0
ARC
  5
18E6
102
{ACAD_REACTORS
330
1900
102
}
330
1F
100
AcDbEntity
  8
0
  6
Continuous
 62
     7
370
    15
100
AcDbCircle
 10
780.6026360435148
 20
771.062169454527
 30
0.0
 40
60.35000000000013
100
AcDbArc
 50
91.28468369852561
 51
267.9616626066789
  0
LINE
  5
18E7
102
{ACAD_REACTORS
330
1900
102
}
330
1F
100
AcDbEntity
  8
0
  6
Continuous
 62
     7
370
    15
100
AcDbLine
 10
778.4560954768217
 20
710.7503558224073
 30
0.0
 11
970.8445282306519
 21
703.903113953881
 31
0.0
  0
ARC
  5
18E8
102
{ACAD_REACTORS
330
1900
102
}
330
1F
100
AcDbEntity
  8
0
  6
Continuous
 62
     7
370
    15
100
AcDbCircle
 10
972.3395667151053
 20
704.0250152664363
 30
0.0
 40
1.500000000000039
100
AcDbArc
 50
184.6614277844398
 51
267.9616626066901
  0
LINE
  5
18E9
102
{ACAD_REACTORS
330
1900
102
}
330
1F
100
AcDbEntity
  8
0
  6
Continuous
 62
     7
370
    15
100
AcDbLine
 10
972.2862144226442
 20
702.5259643890846
 30
0.0
 11
976.2836834289149
 21
702.383691609188
 31
0.0
  0
CIRCLE
  5
18EA
102
{ACAD_REACTORS
330
1900
102
}
330
1F
100
AcDbEntity
  8
0
  6
Continuous
 62
     7
370
    15
100
AcDbCircle
 10
804.1999791399968
 20
424.492668912143
 30
0.0
 40
1.249999999999943
  0
CIRCLE
  5
18EB
102
{ACAD_REACTORS
330
1900
102
}
330
1F
100
AcDbEntity
  8
0
  6
Continuous
 62
     7
370
    15
100
AcDbCircle
 10
829.2263670674785
 20
432.125696567123
 30
0.0
 40
1.25
  0
CIRCLE
  5
18EC
102
{ACAD_REACTORS
330
1900
102
}
330
1F
100
AcDbEntity
  8
0
  6
Continuous
 62
     7
370
    15
100
AcDbCircle
 10
853.3041080716813
 20
421.8862829113986
 30
0.0
 40
1.250000000000057
  0
CIRCLE
  5
18ED
102
{ACAD_REACTORS
330
1900
102
}
330
1F
100
AcDbEntity
  8
0
  6
Continuous
 62
     7
370
    15
100
AcDbCircle
 10
848.331694690527
 20
443.6225978865816
 30
0.0
 40
1.25
  0
CIRCLE
  5
18EE
102
{ACAD_REACTORS
330
1900
102
}
330
1F
100
AcDbEntity
  8
0
  6
Continuous
 62
     7
370
    15
100
AcDbCircle
 10
794.7298110999595
 20
437.0775176316735
 30
0.0
 40
1.250000000000057
  0
LINE
  5
18EF
102
{ACAD_REACTORS
330
1900
102
}
330
1F
100
AcDbEntity
  8
0
  6
Continuous
 62
     7
370
    15
100
AcDbLine
 10
824.7705602267387
 20
831.6773034834562
 30
0.0
 11
983.1781104890065
 21
716.2517949512978
 31
0.0
  0
ARC
  5
18F0
102
{ACAD_REACTORS
330
1900
102
}
330
1F
100
AcDbEntity
  8
0
  6
Continuous
 62
     7
370
    15
100
AcDbCircle
 10
974.3445256523614
 20
704.1287681455124
 30
0.0
 40
15.00000000000001
100
AcDbArc
 50
267.9616626066792
 51
53.92061138364001
  0
LINE
  5
18F1
102
{ACAD_REACTORS
330
1900
102
}
330
1F
100
AcDbEntity
  8
0
  6
Continuous
 62
     7
370
    15
100
AcDbLine
 10
862.1717431858227
 20
693.1115804348302
 30
0.0
 11
973.8110027277486
 21
689.1382593719948
 31
0.0
  0
ARC
  5
18F2
102
{ACAD_REACTORS
330
1900
102
}
330
1F
100
AcDbEntity
  8
0
  6
Continuous
 62
     7
370
    15
100
AcDbCircle
 10
860.6038436140659
 20
649.0579677367983
 30
0.0
 40
44.081505201335
100
AcDbArc
 50
87.9616626066792
 51
186.9616626066786
  0
LINE
  5
18F3
102
{ACAD_REACTORS
330
1900
102
}
330
1F
100
AcDbEntity
  8
0
  6
Continuous
 62
     7
370
    15
100
AcDbLine
 10
816.8473304603805
 20
643.7150605275408
 30
0.0
 11
828.9577510690235
 21
544.5350153003677
 31
0.0
  0
ARC
  5
18F4
102
{ACAD_REACTORS
330
1900
102
}
330
1F
100
AcDbEntity
  8
0
  6
Continuous
 62
     7
370
    15
100
AcDbCircle
 10
1065.76299588157
 20
573.4502180555576
 30
0.0
 40
238.5640646055134
100
AcDbArc
 50
186.9616626066784
 51
216.961662606679
  0
LINE
  5
18F5
102
{ACAD_REACTORS
330
1900
102
}
330
1F
100
AcDbEntity
  8
0
  6
Continuous
 62
     7
370
    15
100
AcDbLine
 10
875.1412395021065
 20
430.0062955077128
 30
0.0
 11
854.3662511397072
 21
414.3730022352705
 31
0.0
  0
ARC
  5
18F6
102
{ACAD_REACTORS
330
1900
102
}
330
1F
100
AcDbEntity
  8
0
  6
Continuous
 62
     7
370
    15
100
AcDbCircle
 10
827.1989586658016
 20
393.9294648789987
 30
0.0
 40
33.99999999999999
100
AcDbArc
 50
36.96166260667957
 51
156.9616626066783
  0
LINE
  5
18F7
102
{ACAD_REACTORS
330
1900
102
}
330
1F
100
AcDbEntity
  8
0
  6
Continuous
 62
     7
370
    15
100
AcDbLine
 10
771.9843664351546
 20
417.4102826842494
 30
0.0
 11
795.9106897351013
 21
407.2352616353073
 31
0.0
  0
ARC
  5
18F8
102
{ACAD_REACTORS
330
1900
102
}
330
1F
100
AcDbEntity
  8
0
  6
Continuous
 62
     7
370
    15
100
AcDbCircle
 10
552.4474073005011
 20
510.7716049489503
 30
0.0
 40
238.5640646055134
100
AcDbArc
 50
336.9616626066793
 51
6.961662606678396
  0
LINE
  5
18F9
102
{ACAD_REACTORS
330
1900
102
}
330
1F
100
AcDbEntity
  8
0
  6
Continuous
 62
     7
370
    15
100
AcDbLine
 10
777.142231504404
 20
638.8668529313125
 30
0.0
 11
789.252652113047
 21
539.6868077041394
 31
0.0
  0
ARC
  5
18FA
102
{ACAD_REACTORS
330
1900
102
}
330
1F
100
AcDbEntity
  8
0
  6
Continuous
 62
     7
370
    15
100
AcDbCircle
 10
671.1409623556146
 20
625.9235239430927
 30
0.0
 40
106.788570673324
100
AcDbArc
 50
6.961662606678624
 51
52.9768778116465
  0
ARC
  5
18FB
102
{ACAD_REACTORS
330
1900
102
}
330
1F
100
AcDbEntity
  8
0
  6
Continuous
 62
     7
370
    15
100
AcDbCircle
 10
780.6026360435148
 20
771.062169454527
 30
0.0
 40
75.00000000000011
100
AcDbArc
 50
53.92061138363892
 51
232.9768778116467
  0
CIRCLE
  5
18FC
102
{ACAD_REACTORS
330
1900
102
}
330
1F
100
AcDbEntity
  8
0
  6
Continuous
 62
     7
370
    15
100
AcDbCircle
 10
820.6538784108931
 20
447.531348469567
 30
0.0
 40
1.249999999999943
  0
CIRCLE
  5
18FD
102
{ACAD_REACTORS
330
1900
102
}
330
1F
100
AcDbEntity
  8
0
  6
Continuous
 62
     7
370
    15
100
AcDbCircle
 10
842.1679800166496
 20
429.1287674260369
 30
0.0
 40
1.249999999999943
  0
CIRCLE
  5
18FE
102
{ACAD_REACTORS
330
1900
102
}
330
1F
100
AcDbEntity
  8
0
  6
Continuous
 62
     7
370
    15
100
AcDbCircle
 10
816.0402187437047
 20
430.5155964502792
 30
0.0
 40
1.25
  0
CIRCLE
  5
18FF
102
{ACAD_REACTORS
330
1900
102
}
330
1F
100
AcDbEntity
  8
0
  6
Continuous
 62
     7
370
    15
100
AcDbCircle
 10
795.1337558958896
 20
414.783367902759
 30
0.0
 40
1.25
  0
ARC
  5
1901
102
{ACAD_REACTORS
330
1925
102
}
330
1F
100
AcDbEntity
  8
0
  6
Continuous
 62
     7
370
    15
100
AcDbCircle
 10
580.9585331369626
 20
396.1383120419206
 30
0.0
 40
1.499999999999979
100
AcDbArc
 50
347.6822188316618
 51
167.6822188316797
  0
LINE
  5
1902
102
{ACAD_REACTORS
330
1925
102
}
330
1F
100
AcDbEntity
  8
0
  6
Continuous
 62
     7
370
    15
100
AcDbLine
 10
578.6397296445602
 20
392.5503947681215
 30
0.0
 11
579.4930640136363
 21
396.4583124303237
 31
0.0
  0
ARC
  5
1903
102
{ACAD_REACTORS
330
1925
102
}
330
1F
100
AcDbEntity
  8
0
  6
Continuous
 62
     7
370
    15
100
AcDbCircle
 10
580.1051987678866
 20
392.230394379718
 30
0.0
 40
1.500000000000044
100
AcDbArc
 50
167.6822188316627
 51
250.9824536539035
  0
LINE
  5
1904
102
{ACAD_REACTORS
330
1925
102
}
330
1F
100
AcDbEntity
  8
0
  6
Continuous
 62
     7
370
    15
100
AcDbLine
 10
538.5475104699872
 20
202.7337211415459
 30
0.0
 11
579.6164122235514
 21
390.8122661365475
 31
0.0
  0
ARC
  5
1905
102
{ACAD_REACTORS
330
1925
102
}
330
1F
100
AcDbEntity
  8
0
  6
Continuous
 62
     7
370
    15
100
AcDbCircle
 10
479.9287455369504
 20
215.5337366776831
 30
0.0
 40
60.00000000000009
100
AcDbArc
 50
171.0019300418499
 51
347.6822188316661
  0
ARC
  5
1906
102
{ACAD_REACTORS
330
1925
102
}
330
1F
100
AcDbEntity
  8
0
  6
Continuous
 62
     7
370
    15
100
AcDbCircle
 10
420.712342021654
 20
226.4171267613671
 30
0.0
 40
1.500000000000017
100
AcDbArc
 50
268.2727266289218
 51
347.6822188316534
  0
LINE
  5
1907
102
{ACAD_REACTORS
330
1925
102
}
330
1F
100
AcDbEntity
  8
0
  6
Continuous
 62
     7
370
    15
100
AcDbLine
 10
422.1778111449794
 20
226.0971263729631
 30
0.0
 11
423.0311455140554
 21
230.0050440351657
 31
0.0
  0
ARC
  5
1908
102
{ACAD_REACTORS
330
1925
102
}
330
1F
100
AcDbEntity
  8
0
  6
Continuous
 62
     7
370
    15
100
AcDbCircle
 10
421.5656763907291
 20
230.3250444235692
 30
0.0
 40
1.499999999999988
100
AcDbArc
 50
347.6822188316618
 51
167.6822188316619
  0
LINE
  5
1909
102
{ACAD_REACTORS
330
1925
102
}
330
1F
100
AcDbEntity
  8
0
  6
Continuous
 62
     7
370
    15
100
AcDbLine
 10
419.2468728983276
 20
226.7371271497701
 30
0.0
 11
420.1002072674037
 21
230.6450448119728
 31
0.0
  0
ARC
  5
190A
102
{ACAD_REACTORS
330
1925
102
}
330
1F
100
AcDbEntity
  8
0
  6
Continuous
 62
     7
370
    15
100
AcDbCircle
 10
420.712342021654
 20
226.4171267613671
 30
0.0
 40
1.500000000000077
100
AcDbArc
 50
167.6822188316781
 51
254.872532366977
  0
ARC
  5
190B
102
{ACAD_REACTORS
330
1925
102
}
330
1F
100
AcDbEntity
  8
0
  6
Continuous
 62
     7
370
    15
100
AcDbCircle
 10
479.9287455369504
 20
215.5337366776831
 30
0.0
 40
60.35000000000013
100
AcDbArc
 50
171.0052399235121
 51
347.6822188316658
  0
LINE
  5
190C
102
{ACAD_REACTORS
330
1925
102
}
330
1F
100
AcDbEntity
  8
0
  6
Continuous
 62
     7
370
    15
100
AcDbLine
 10
538.8894532654294
 20
202.6590543842519
 30
0.0
 11
579.9583550189946
 21
390.737599379254
 31
0.0
  0
ARC
  5
190D
102
{ACAD_REACTORS
330
1925
102
}
330
1F
100
AcDbEntity
  8
0
  6
Continuous
 62
     7
370
    15
100
AcDbCircle
 10
580.1051987678866
 20
392.230394379718
 30
0.0
 40
1.500000000000039
100
AcDbArc
 50
264.381984009441
 51
347.6822188316797
  0
LINE
  5
190E
102
{ACAD_REACTORS
330
1925
102
}
330
1F
100
AcDbEntity
  8
0
  6
Continuous
 62
     7
370
    15
100
AcDbLine
 10
581.5706678912129
 20
391.9103939913149
 30
0.0
 11
582.424002260288
 21
395.8183116535171
 31
0.0
  0
CIRCLE
  5
190F
102
{ACAD_REACTORS
330
1925
102
}
330
1F
100
AcDbEntity
  8
0
  6
Continuous
 62
     7
370
    15
100
AcDbCircle
 10
825.1464293242593
 20
176.9072676708518
 30
0.0
 40
1.249999999999943
  0
CIRCLE
  5
1910
102
{ACAD_REACTORS
330
1925
102
}
330
1F
100
AcDbEntity
  8
0
  6
Continuous
 62
     7
370
    15
100
AcDbCircle
 10
822.1018576391625
 20
202.8940679189161
 30
0.0
 40
1.25
  0
CIRCLE
  5
1911
102
{ACAD_REACTORS
330
1925
102
}
330
1F
100
AcDbEntity
  8
0
  6
Continuous
 62
     7
370
    15
100
AcDbCircle
 10
836.4735736329726
 20
224.7581247993704
 30
0.0
 40
1.250000000000057
  0
CIRCLE
  5
1912
102
{ACAD_REACTORS
330
1925
102
}
330
1F
100
AcDbEntity
  8
0
  6
Continuous
 62
     7
370
    15
100
AcDbCircle
 10
814.1988223038466
 20
223.7443512748356
 30
0.0
 40
1.25
  0
CIRCLE
  5
1913
102
{ACAD_REACTORS
330
1925
102
}
330
1F
100
AcDbEntity
  8
0
  6
Continuous
 62
     7
370
    15
100
AcDbCircle
 10
811.0736344300717
 20
169.8348604522209
 30
0.0
 40
1.250000000000057
  0
LINE
  5
1914
102
{ACAD_REACTORS
330
1925
102
}
330
1F
100
AcDbEntity
  8
0
  6
Continuous
 62
     7
370
    15
100
AcDbLine
 10
428.1682687394605
 20
269.8094498622796
 30
0.0
 11
570.0087991952059
 21
405.0768292263858
 31
0.0
  0
ARC
  5
1915
102
{ACAD_REACTORS
330
1925
102
}
330
1F
100
AcDbEntity
  8
0
  6
Continuous
 62
     7
370
    15
100
AcDbCircle
 10
580.360894554703
 20
394.2216865894663
 30
0.0
 40
15.00000000000001
100
AcDbArc
 50
347.6822188316657
 51
133.6411676086256
  0
LINE
  5
1916
102
{ACAD_REACTORS
330
1925
102
}
330
1F
100
AcDbEntity
  8
0
  6
Continuous
 62
     7
370
    15
100
AcDbLine
 10
571.1841021777464
 20
281.8833670675509
 30
0.0
 11
595.0155857879627
 21
391.0216827054321
 31
0.0
  0
ARC
  5
1917
102
{ACAD_REACTORS
330
1925
102
}
330
1F
100
AcDbEntity
  8
0
  6
Continuous
 62
     7
370
    15
100
AcDbCircle
 10
614.250825365938
 20
272.4793012103274
 30
0.0
 40
44.081505201335
100
AcDbArc
 50
167.6822188316649
 51
266.6822188316652
  0
LINE
  5
1918
102
{ACAD_REACTORS
330
1925
102
}
330
1F
100
AcDbEntity
  8
0
  6
Continuous
 62
     7
370
    15
100
AcDbLine
 10
611.69965896755
 20
228.4716808381341
 30
0.0
 11
711.4488726108866
 21
222.6891177283757
 31
0.0
  0
ARC
  5
1919
102
{ACAD_REACTORS
330
1925
102
}
330
1F
100
AcDbEntity
  8
0
  6
Continuous
 62
     7
370
    15
100
AcDbCircle
 10
725.2554933853971
 20
460.8533260886845
 30
0.0
 40
238.5640646055134
100
AcDbArc
 50
266.682218831665
 51
296.6822188316656
  0
LINE
  5
191A
102
{ACAD_REACTORS
330
1925
102
}
330
1F
100
AcDbEntity
  8
0
  6
Continuous
 62
     7
370
    15
100
AcDbLine
 10
832.3807132344068
 20
247.6937609891912
 30
0.0
 11
844.0557981667489
 21
224.4624805289455
 31
0.0
  0
ARC
  5
191B
102
{ACAD_REACTORS
330
1925
102
}
330
1F
100
AcDbEntity
  8
0
  6
Continuous
 62
     7
370
    15
100
AcDbCircle
 10
859.3232169244284
 20
194.08311377324
 30
0.0
 40
33.99999999999999
100
AcDbArc
 50
116.6822188316662
 51
236.6822188316651
  0
LINE
  5
191C
102
{ACAD_REACTORS
330
1925
102
}
330
1F
100
AcDbEntity
  8
0
  6
Continuous
 62
     7
370
    15
100
AcDbLine
 10
826.3662863670997
 20
143.9448975281496
 30
0.0
 11
840.6476229419422
 21
165.671457901022
 31
0.0
  0
ARC
  5
191D
102
{ACAD_REACTORS
330
1925
102
}
330
1F
100
AcDbEntity
  8
0
  6
Continuous
 62
     7
370
    15
100
AcDbCircle
 10
695.3272978558016
 20
-55.40804679683265
 30
0.0
 40
238.5640646055134
100
AcDbArc
 50
56.68221883166589
 51
86.68221883166508
  0
LINE
  5
191E
102
{ACAD_REACTORS
330
1925
102
}
330
1F
100
AcDbEntity
  8
0
  6
Continuous
 62
     7
370
    15
100
AcDbLine
 10
609.384704986976
 20
188.5387246732341
 30
0.0
 11
709.1339186303126
 21
182.7561615634756
 31
0.0
  0
ARC
  5
191F
102
{ACAD_REACTORS
330
1925
102
}
330
1F
100
AcDbEntity
  8
0
  6
Continuous
 62
     7
370
    15
100
AcDbCircle
 10
603.2044393179758
 20
81.92914188298005
 30
0.0
 40
106.788570673324
100
AcDbArc
 50
86.68221883166521
 51
132.697434036633
  0
ARC
  5
1920
102
{ACAD_REACTORS
330
1925
102
}
330
1F
100
AcDbEntity
  8
0
  6
Continuous
 62
     7
370
    15
100
AcDbCircle
 10
479.9287455369504
 20
215.5337366776831
 30
0.0
 40
75.00000000000011
100
AcDbArc
 50
133.6411676086256
 51
312.6974340366335
  0
CIRCLE
  5
1921
102
{ACAD_REACTORS
330
1925
102
}
330
1F
100
AcDbEntity
  8
0
  6
Continuous
 62
     7
370
    15
100
AcDbCircle
 10
805.4137261018132
 20
197.2083016470149
 30
0.0
 40
1.249999999999943
  0
CIRCLE
  5
1922
102
{ACAD_REACTORS
330
1925
102
}
330
1F
100
AcDbEntity
  8
0
  6
Continuous
 62
     7
370
    15
100
AcDbCircle
 10
827.3601040681829
 20
215.0931570035374
 30
0.0
 40
1.249999999999943
  0
CIRCLE
  5
1923
102
{ACAD_REACTORS
330
1925
102
}
330
1F
100
AcDbEntity
  8
0
  6
Continuous
 62
     7
370
    15
100
AcDbCircle
 10
821.333056468703
 20
189.6322477284923
 30
0.0
 40
1.25
  0
CIRCLE
  5
1924
102
{ACAD_REACTORS
330
1925
102
}
330
1F
100
AcDbEntity
  8
0
  6
Continuous
 62
     7
370
    15
100
AcDbCircle
 10
833.0820271600605
 20
166.2539481416509
 30
0.0
 40
1.25
  0
ARC
  5
19A3
102
{ACAD_REACTORS
330
19B7
102
}
330
1F
100
AcDbEntity
  8
0
  6
Continuous
 62
     7
370
    15
100
AcDbCircle
 10
768.8875723462497
 20
1014.767002741068
 30
0.0
 40
15.00000000000001
100
AcDbArc
 50
63.95294484048557
 51
243.9529448404875
  0
ARC
  5
19A4
102
{ACAD_REACTORS
330
19B7
102
}
330
1F
100
AcDbEntity
  8
0
  6
Continuous
 62
     7
370
    15
100
AcDbCircle
 10
894.0075075515174
 20
819.8541185101124
 30
0.0
 40
1.5000000000001
100
AcDbArc
 50
344.5434526377291
 51
63.95294484048787
  0
LINE
  5
19A5
102
{ACAD_REACTORS
330
19B7
102
}
330
1F
100
AcDbEntity
  8
0
  6
Continuous
 62
     7
370
    15
100
AcDbLine
 10
894.6661712752821
 20
821.201769095019
 30
0.0
 11
891.0724363822001
 21
822.9582056917245
 31
0.0
  0
ARC
  5
19A6
102
{ACAD_REACTORS
330
19B7
102
}
330
1F
100
AcDbEntity
  8
0
  6
Continuous
 62
     7
370
    15
100
AcDbCircle
 10
890.4137726584368
 20
821.6105551068179
 30
0.0
 40
1.500000000000044
100
AcDbArc
 50
63.95294484054422
 51
243.9529448404102
  0
LINE
  5
19A7
102
{ACAD_REACTORS
330
19B7
102
}
330
1F
100
AcDbEntity
  8
0
  6
Continuous
 62
     7
370
    15
100
AcDbLine
 10
893.3488438277532
 20
818.5064679252071
 30
0.0
 11
889.7551089346707
 21
820.2629045219135
 31
0.0
  0
ARC
  5
19A8
102
{ACAD_REACTORS
330
19B7
102
}
330
1F
100
AcDbEntity
  8
0
  6
Continuous
 62
     7
370
    15
100
AcDbCircle
 10
894.0075075515174
 20
819.8541185101124
 30
0.0
 40
1.50000000000001
100
AcDbArc
 50
243.9529448404859
 51
331.1432583758275
  0
ARC
  5
19A9
102
{ACAD_REACTORS
330
19B7
102
}
330
1F
100
AcDbEntity
  8
0
  6
Continuous
 62
     7
370
    15
100
AcDbCircle
 10
918.6340331566676
 20
874.7955861062635
 30
0.0
 40
60.35000000000017
100
AcDbArc
 50
247.2759659323349
 51
63.95294484048792
  0
LINE
  5
19AA
102
{ACAD_REACTORS
330
19B7
102
}
330
1F
100
AcDbEntity
  8
0
  6
Continuous
 62
     7
370
    15
100
AcDbLine
 10
945.1342703094651
 20
929.0160613056335
 30
0.0
 11
772.1765756461527
 21
1013.549070452556
 31
0.0
  0
ARC
  5
19AB
102
{ACAD_REACTORS
330
19B7
102
}
330
1F
100
AcDbEntity
  8
0
  6
Continuous
 62
     7
370
    15
100
AcDbCircle
 10
770.7612838938976
 20
1014.046010344286
 30
0.0
 40
1.500000000000088
100
AcDbArc
 50
340.65271001832
 51
63.95294484054612
  0
LINE
  5
19AC
102
{ACAD_REACTORS
330
19B7
102
}
330
1F
100
AcDbEntity
  8
0
  6
Continuous
 62
     7
370
    15
100
AcDbLine
 10
771.4199476176618
 20
1015.393660929194
 30
0.0
 11
767.8262127245803
 21
1017.1500975259
 31
0.0
  0
ARC
  5
19AD
102
{ACAD_REACTORS
330
19B7
102
}
330
1F
100
AcDbEntity
  8
0
  6
Continuous
 62
     7
370
    15
100
AcDbCircle
 10
767.1675490008151
 20
1015.802446940995
 30
0.0
 40
1.500000000000039
100
AcDbArc
 50
63.95294484044711
 51
243.9529448404859
  0
LINE
  5
19AE
102
{ACAD_REACTORS
330
19B7
102
}
330
1F
100
AcDbEntity
  8
0
  6
Continuous
 62
     7
370
    15
100
AcDbLine
 10
770.1026201701316
 20
1012.698359759382
 30
0.0
 11
766.5088852770505
 21
1014.454796356088
 31
0.0
  0
ARC
  5
19AF
102
{ACAD_REACTORS
330
19B7
102
}
330
1F
100
AcDbEntity
  8
0
  6
Continuous
 62
     7
370
    15
100
AcDbCircle
 10
770.7612838938976
 20
1014.046010344286
 30
0.0
 40
1.500000000000047
100
AcDbArc
 50
243.9529448404296
 51
327.2531796627689
  0
LINE
  5
19B0
102
{ACAD_REACTORS
330
19B7
102
}
330
1F
100
AcDbEntity
  8
0
  6
Continuous
 62
     7
370
    15
100
AcDbLine
 10
944.9805821072541
 20
928.7016095024894
 30
0.0
 11
772.0228874439431
 21
1013.234618649412
 31
0.0
  0
ARC
  5
19B1
102
{ACAD_REACTORS
330
19B7
102
}
330
1F
100
AcDbEntity
  8
0
  6
Continuous
 62
     7
370
    15
100
AcDbCircle
 10
918.6340331566676
 20
874.7955861062635
 30
0.0
 40
60.00000000000012
100
AcDbArc
 50
247.2726560506724
 51
63.95294484048811
  0
LINE
  5
19B2
102
{ACAD_REACTORS
330
19B7
102
}
330
1F
100
AcDbEntity
  8
0
  6
Continuous
 62
     7
370
    15
100
AcDbLine
 10
951.5672193449004
 20
942.1781153515451
 30
0.0
 11
775.474209583896
 21
1028.243508590125
 31
0.0
  0
ARC
  5
19B3
102
{ACAD_REACTORS
330
19B7
102
}
330
1F
100
AcDbEntity
  8
0
  6
Continuous
 62
     7
370
    15
100
AcDbCircle
 10
918.6340331566676
 20
874.7955861062635
 30
0.0
 40
75.00000000000006
100
AcDbArc
 50
243.9529448404872
 51
63.9529448404876
  0
ARC
  5
19B4
102
{ACAD_REACTORS
330
19B7
102
}
330
1F
100
AcDbEntity
  8
0
  6
Continuous
 62
     7
370
    15
100
AcDbCircle
 10
892.2874842060814
 20
820.889562710038
 30
0.0
 40
14.99999999999998
100
AcDbArc
 50
63.95294484048364
 51
243.9529448404933
  0
ARC
  5
19B5
102
{ACAD_REACTORS
330
19B7
102
}
330
1F
100
AcDbEntity
  8
0
  6
Continuous
 62
     7
370
    15
100
AcDbCircle
 10
918.6340331566676
 20
874.7955861062635
 30
0.0
 40
45.00000000000011
100
AcDbArc
 50
243.9529448404883
 51
63.95294484048765
  0
LINE
  5
19B6
102
{ACAD_REACTORS
330
19B7
102
}
330
1F
100
AcDbEntity
  8
0
  6
Continuous
 62
     7
370
    15
100
AcDbLine
 10
938.3939448696078
 20
915.2251036534328
 30
0.0
 11
762.3009351086039
 21
1001.290496892012
 31
0.0
  0
CIRCLE
  5
19E2
102
{ACAD_REACTORS
330
19FF
102
}
330
1F
100
AcDbEntity
  8
0
  6
Continuous
 62
     7
370
    15
100
AcDbCircle
 10
615.5504964896886
 20
779.9880498693476
 30
0.0
 40
1.250000000009237
  0
CIRCLE
  5
19E3
102
{ACAD_REACTORS
330
19FF
102
}
330
1F
100
AcDbEntity
  8
0
  6
Continuous
 62
     7
370
    15
100
AcDbCircle
 10
636.4266377892395
 20
798.5763948621031
 30
0.0
 40
1.249999999997584
  0
CIRCLE
  5
19E4
102
{ACAD_REACTORS
330
19FF
102
}
330
1F
100
AcDbEntity
  8
0
  6
Continuous
 62
     7
370
    15
100
AcDbCircle
 10
639.5518256630244
 20
852.4858856847111
 30
0.0
 40
1.25
  0
CIRCLE
  5
19E5
102
{ACAD_REACTORS
330
19FF
102
}
330
1F
100
AcDbEntity
  8
0
  6
Continuous
 62
     7
370
    15
100
AcDbCircle
 10
546.1778485480881
 20
857.8988698653
 30
0.0
 40
1.249999999988404
  0
CIRCLE
  5
19E6
102
{ACAD_REACTORS
330
19FF
102
}
330
1F
100
AcDbEntity
  8
0
  6
Continuous
 62
     7
370
    15
100
AcDbCircle
 10
543.0526606743128
 20
803.9893790426843
 30
0.0
 40
1.249999999988318
  0
CIRCLE
  5
19E7
102
{ACAD_REACTORS
330
19FF
102
}
330
1F
100
AcDbEntity
  8
0
  6
Continuous
 62
     7
370
    15
100
AcDbCircle
 10
559.3391303124231
 20
849.2476755939895
 30
0.0
 40
1.249999999999971
  0
CIRCLE
  5
19E8
102
{ACAD_REACTORS
330
19FF
102
}
330
1F
100
AcDbEntity
  8
0
  6
Continuous
 62
     7
370
    15
100
AcDbCircle
 10
580.3220736477706
 20
864.8777521409586
 30
0.0
 40
1.249999999999971
  0
CIRCLE
  5
19E9
102
{ACAD_REACTORS
330
19FF
102
}
330
1F
100
AcDbEntity
  8
0
  6
Continuous
 62
     7
370
    15
100
AcDbCircle
 10
606.4427603329368
 20
863.3635094345711
 30
0.0
 40
1.25
  0
CIRCLE
  5
19EA
102
{ACAD_REACTORS
330
19FF
102
}
330
1F
100
AcDbEntity
  8
0
  6
Continuous
 62
     7
370
    15
100
AcDbCircle
 10
625.4790307688381
 20
845.4134784660803
 30
0.0
 40
1.249999999999971
  0
CIRCLE
  5
19EB
102
{ACAD_REACTORS
330
19FF
102
}
330
1F
100
AcDbEntity
  8
0
  6
Continuous
 62
     7
370
    15
100
AcDbCircle
 10
628.523602453934
 20
819.4266782180168
 30
0.0
 40
1.249999999999971
  0
CIRCLE
  5
19EC
102
{ACAD_REACTORS
330
19FF
102
}
330
1F
100
AcDbEntity
  8
0
  6
Continuous
 62
     7
370
    15
100
AcDbCircle
 10
614.1518864601239
 20
797.5626213375615
 30
0.0
 40
1.249999999999971
  0
CIRCLE
  5
19ED
102
{ACAD_REACTORS
330
19FF
102
}
330
1F
100
AcDbEntity
  8
0
  6
Continuous
 62
     7
370
    15
100
AcDbCircle
 10
589.0885684247446
 20
790.0517430310053
 30
0.0
 40
1.249999999999971
  0
CIRCLE
  5
19EE
102
{ACAD_REACTORS
330
19FF
102
}
330
1F
100
AcDbEntity
  8
0
  6
Continuous
 62
     7
370
    15
100
AcDbCircle
 10
565.0610534043012
 20
800.4084667321019
 30
0.0
 40
1.249999999999971
  0
CIRCLE
  5
19EF
102
{ACAD_REACTORS
330
19FF
102
}
330
1F
100
AcDbEntity
  8
0
  6
Continuous
 62
     7
370
    15
100
AcDbCircle
 10
553.3120827129433
 20
823.7867663189438
 30
0.0
 40
1.249999999999971
  0
CIRCLE
  5
19F0
102
{ACAD_REACTORS
330
19FF
102
}
330
1F
100
AcDbEntity
  8
0
  6
Continuous
 62
     7
370
    15
100
AcDbCircle
 10
591.3022431686686
 20
828.237632363692
 30
0.0
 40
59.99999999999999
  0
CIRCLE
  5
19F1
102
{ACAD_REACTORS
330
19FF
102
}
330
1F
100
AcDbEntity
  8
0
  6
Continuous
 62
     7
370
    15
100
AcDbCircle
 10
591.3022431686686
 20
828.237632363692
 30
0.0
 40
25.0
  0
CIRCLE
  5
19F2
102
{ACAD_REACTORS
330
19FF
102
}
330
1F
100
AcDbEntity
  8
0
  6
Continuous
 62
     7
370
    15
100
AcDbCircle
 10
557.1254555684991
 20
811.0617862613055
 30
0.0
 40
1.249999999999971
  0
CIRCLE
  5
19F3
102
{ACAD_REACTORS
330
19FF
102
}
330
1F
100
AcDbEntity
  8
0
  6
Continuous
 62
     7
370
    15
100
AcDbCircle
 10
576.161726004399
 20
793.1117552928133
 30
0.0
 40
1.249999999999971
  0
CIRCLE
  5
19F4
102
{ACAD_REACTORS
330
19FF
102
}
330
1F
100
AcDbEntity
  8
0
  6
Continuous
 62
     7
370
    15
100
AcDbCircle
 10
602.2824126895662
 20
791.5975125864259
 30
0.0
 40
1.249999999999971
  0
CIRCLE
  5
19F5
102
{ACAD_REACTORS
330
19FF
102
}
330
1F
100
AcDbEntity
  8
0
  6
Continuous
 62
     7
370
    15
100
AcDbCircle
 10
623.2653560249137
 20
807.2275891333954
 30
0.0
 40
1.249999999999971
  0
CIRCLE
  5
19F6
102
{ACAD_REACTORS
330
19FF
102
}
330
1F
100
AcDbEntity
  8
0
  6
Continuous
 62
     7
370
    15
100
AcDbCircle
 10
629.2924036243926
 20
832.6884984084415
 30
0.0
 40
1.249999999999971
  0
CIRCLE
  5
19F7
102
{ACAD_REACTORS
330
19FF
102
}
330
1F
100
AcDbEntity
  8
0
  6
Continuous
 62
     7
370
    15
100
AcDbCircle
 10
617.5434329330355
 20
856.0667979952821
 30
0.0
 40
1.249999999999971
  0
CIRCLE
  5
19F8
102
{ACAD_REACTORS
330
19FF
102
}
330
1F
100
AcDbEntity
  8
0
  6
Continuous
 62
     7
370
    15
100
AcDbCircle
 10
593.5159179125922
 20
866.4235216963777
 30
0.0
 40
1.249999999999971
  0
CIRCLE
  5
19F9
102
{ACAD_REACTORS
330
19FF
102
}
330
1F
100
AcDbEntity
  8
0
  6
Continuous
 62
     7
370
    15
100
AcDbCircle
 10
568.4525998772124
 20
858.9126433898225
 30
0.0
 40
1.249999999999971
  0
CIRCLE
  5
19FA
102
{ACAD_REACTORS
330
19FF
102
}
330
1F
100
AcDbEntity
  8
0
  6
Continuous
 62
     7
370
    15
100
AcDbCircle
 10
554.0808838834027
 20
837.0485865093676
 30
0.0
 40
1.249999999999971
  0
CIRCLE
  5
19FB
102
{ACAD_REACTORS
330
19FF
102
}
330
1F
100
AcDbEntity
  8
0
  6
Continuous
 62
     7
370
    15
100
AcDbCircle
 10
594.4274310424435
 20
882.1471231863072
 30
0.0
 40
1.25
  0
CIRCLE
  5
19FC
102
{ACAD_REACTORS
330
19FF
102
}
330
1F
100
AcDbEntity
  8
0
  6
Continuous
 62
     7
370
    15
100
AcDbCircle
 10
537.3927523460534
 20
831.3628202374668
 30
0.0
 40
1.25
  0
CIRCLE
  5
19FD
102
{ACAD_REACTORS
330
19FF
102
}
330
1F
100
AcDbEntity
  8
0
  6
Continuous
 62
     7
370
    15
100
AcDbCircle
 10
620.9634806702538
 20
873.3620269842802
 30
0.0
 40
1.250000000011681
  0
CIRCLE
  5
19FE
102
{ACAD_REACTORS
330
19FF
102
}
330
1F
100
AcDbEntity
  8
0
  6
Continuous
 62
     7
370
    15
100
AcDbCircle
 10
588.1770552948833
 20
774.328141541084
 30
0.0
 40
1.249999999997499
  0
LINE
  5
1A07
330
1F
100
AcDbEntity
  8
0
100
AcDbLine
 10
1024.65336513743
 20
134.3235533712545
 30
0.0
 11
24.65336513743068
 21
134.3235533712545
 31
0.0
  0
ARC
  5
1A08
102
{ACAD_REACTORS
330
1A2C
102
}
330
1F
100
AcDbEntity
  8
0
  6
Continuous
 62
     7
370
    15
100
AcDbCircle
 10
913.9198122684618
 20
450.4919795132624
 30
0.0
 40
1.499999999999979
100
AcDbArc
 50
352.6623331459969
 51
172.6623331460142
  0
LINE
  5
1A09
102
{ACAD_REACTORS
330
1A2C
102
}
330
1F
100
AcDbEntity
  8
0
  6
Continuous
 62
     7
370
    15
100
AcDbLine
 10
914.8966616582557
 20
446.3331617401852
 30
0.0
 11
915.4075283104073
 21
450.300404518705
 31
0.0
  0
ARC
  5
1A0A
102
{ACAD_REACTORS
330
1A2C
102
}
330
1F
100
AcDbEntity
  8
0
  6
Continuous
 62
     7
370
    15
100
AcDbCircle
 10
913.4089456163103
 20
446.524736734742
 30
0.0
 40
1.500000000000044
100
AcDbArc
 50
269.3620983237757
 51
352.6623331460126
  0
LINE
  5
1A0B
102
{ACAD_REACTORS
330
1A2C
102
}
330
1F
100
AcDbEntity
  8
0
  6
Continuous
 62
     7
370
    15
100
AcDbLine
 10
888.8054798585138
 20
254.091111560489
 30
0.0
 11
913.3922457344881
 21
445.0248296996402
 31
0.0
  0
ARC
  5
1A0C
102
{ACAD_REACTORS
330
1A2C
102
}
330
1F
100
AcDbEntity
  8
0
  6
Continuous
 62
     7
370
    15
100
AcDbCircle
 10
948.3141215363141
 20
246.4281117782135
 30
0.0
 40
60.00000000000011
100
AcDbArc
 50
172.6623331460075
 51
349.3426219358238
  0
ARC
  5
1A0D
102
{ACAD_REACTORS
330
1A2C
102
}
330
1F
100
AcDbEntity
  8
0
  6
Continuous
 62
     7
370
    15
100
AcDbCircle
 10
1007.740896759599
 20
236.7591401906469
 30
0.0
 40
1.500000000000017
100
AcDbArc
 50
172.6623331460277
 51
252.0718253487529
  0
LINE
  5
1A0E
102
{ACAD_REACTORS
330
1A2C
102
}
330
1F
100
AcDbEntity
  8
0
  6
Continuous
 62
     7
370
    15
100
AcDbLine
 10
1006.253180717654
 20
236.9507151852033
 30
0.0
 11
1006.764047369806
 21
240.9179579637235
 31
0.0
  0
ARC
  5
1A0F
102
{ACAD_REACTORS
330
1A2C
102
}
330
1F
100
AcDbEntity
  8
0
  6
Continuous
 62
     7
370
    15
100
AcDbCircle
 10
1008.251763411751
 20
240.7263829691665
 30
0.0
 40
1.499999999999988
100
AcDbArc
 50
352.6623331460141
 51
172.6623331460142
  0
LINE
  5
1A10
102
{ACAD_REACTORS
330
1A2C
102
}
330
1F
100
AcDbEntity
  8
0
  6
Continuous
 62
     7
370
    15
100
AcDbLine
 10
1009.228612801544
 20
236.5675651960897
 30
0.0
 11
1009.739479453696
 21
240.5348079746098
 31
0.0
  0
ARC
  5
1A11
102
{ACAD_REACTORS
330
1A2C
102
}
330
1F
100
AcDbEntity
  8
0
  6
Continuous
 62
     7
370
    15
100
AcDbCircle
 10
1007.740896759599
 20
236.7591401906469
 30
0.0
 40
1.500000000000077
100
AcDbArc
 50
265.4720196107001
 51
352.6623331459975
  0
ARC
  5
1A12
102
{ACAD_REACTORS
330
1A2C
102
}
330
1F
100
AcDbEntity
  8
0
  6
Continuous
 62
     7
370
    15
100
AcDbCircle
 10
948.3141215363141
 20
246.4281117782135
 30
0.0
 40
60.35000000000014
100
AcDbArc
 50
172.6623331460079
 51
349.3393120541617
  0
LINE
  5
1A13
102
{ACAD_REACTORS
330
1A2C
102
}
330
1F
100
AcDbEntity
  8
0
  6
Continuous
 62
     7
370
    15
100
AcDbLine
 10
888.4583461153936
 20
254.1358123925525
 30
0.0
 11
913.0451119913678
 21
445.0695305317042
 31
0.0
  0
ARC
  5
1A14
102
{ACAD_REACTORS
330
1A2C
102
}
330
1F
100
AcDbEntity
  8
0
  6
Continuous
 62
     7
370
    15
100
AcDbCircle
 10
913.4089456163103
 20
446.524736734742
 30
0.0
 40
1.500000000000039
100
AcDbArc
 50
172.6623331459884
 51
255.9625679682525
  0
LINE
  5
1A15
102
{ACAD_REACTORS
330
1A2C
102
}
330
1F
100
AcDbEntity
  8
0
  6
Continuous
 62
     7
370
    15
100
AcDbLine
 10
911.9212295743655
 20
446.7163117292993
 30
0.0
 11
912.4320962265172
 21
450.683554507819
 31
0.0
  0
CIRCLE
  5
1A16
102
{ACAD_REACTORS
330
1A2C
102
}
330
1F
100
AcDbEntity
  8
0
  6
Continuous
 62
     7
370
    15
100
AcDbCircle
 10
610.2189327285957
 20
326.1708018035925
 30
0.0
 40
1.249999999999943
  0
CIRCLE
  5
1A17
102
{ACAD_REACTORS
330
1A2C
102
}
330
1F
100
AcDbEntity
  8
0
  6
Continuous
 62
     7
370
    15
100
AcDbCircle
 10
621.8271048708657
 20
349.6193314673885
 30
0.0
 40
1.25
  0
CIRCLE
  5
1A18
102
{ACAD_REACTORS
330
1A2C
102
}
330
1F
100
AcDbEntity
  8
0
  6
Continuous
 62
     7
370
    15
100
AcDbCircle
 10
615.647056301963
 20
375.0435365398091
 30
0.0
 40
1.250000000000057
  0
CIRCLE
  5
1A19
102
{ACAD_REACTORS
330
1A2C
102
}
330
1F
100
AcDbEntity
  8
0
  6
Continuous
 62
     7
370
    15
100
AcDbCircle
 10
636.2829148518379
 20
366.5964290204866
 30
0.0
 40
1.25
  0
CIRCLE
  5
1A1A
102
{ACAD_REACTORS
330
1A2C
102
}
330
1F
100
AcDbEntity
  8
0
  6
Continuous
 62
     7
370
    15
100
AcDbCircle
 10
621.0928425932714
 20
314.7769181700405
 30
0.0
 40
1.250000000000057
  0
LINE
  5
1A1B
102
{ACAD_REACTORS
330
1A2C
102
}
330
1F
100
AcDbEntity
  8
0
  6
Continuous
 62
     7
370
    15
100
AcDbLine
 10
1015.314985003012
 20
280.1309943658638
 30
0.0
 11
927.2381185072859
 21
455.2265842255009
 31
0.0
  0
ARC
  5
1A1C
102
{ACAD_REACTORS
330
1A2C
102
}
330
1F
100
AcDbEntity
  8
0
  6
Continuous
 62
     7
370
    15
100
AcDbCircle
 10
913.8379458139466
 20
448.4860077079705
 30
0.0
 40
15.00000000000002
100
AcDbArc
 50
26.70338436904775
 51
172.6623331460084
  0
LINE
  5
1A1D
102
{ACAD_REACTORS
330
1A2C
102
}
330
1F
100
AcDbEntity
  8
0
  6
Continuous
 62
     7
370
    15
100
AcDbLine
 10
884.6935641398973
 20
339.6066406627168
 30
0.0
 11
898.9607853944965
 21
450.4017576535394
 31
0.0
  0
ARC
  5
1A1E
102
{ACAD_REACTORS
330
1A2C
102
}
330
1F
100
AcDbEntity
  8
0
  6
Continuous
 62
     7
370
    15
100
AcDbCircle
 10
840.9730558458255
 20
345.2365834087202
 30
0.0
 40
44.08150520133501
100
AcDbArc
 50
253.6623331460083
 51
352.6623331460085
  0
LINE
  5
1A1F
102
{ACAD_REACTORS
330
1A2C
102
}
330
1F
100
AcDbEntity
  8
0
  6
Continuous
 62
     7
370
    15
100
AcDbLine
 10
828.5730327111091
 20
302.9350642034499
 30
0.0
 11
732.6909277266193
 21
331.0413909347324
 31
0.0
  0
ARC
  5
1A20
102
{ACAD_REACTORS
330
1A2C
102
}
330
1F
100
AcDbEntity
  8
0
  6
Continuous
 62
     7
370
    15
100
AcDbCircle
 10
799.7984347572699
 20
559.9723749042137
 30
0.0
 40
238.5640646055135
100
AcDbArc
 50
223.662333146008
 51
253.6623331460086
  0
LINE
  5
1A21
102
{ACAD_REACTORS
330
1A2C
102
}
330
1F
100
AcDbEntity
  8
0
  6
Continuous
 62
     7
370
    15
100
AcDbLine
 10
627.2161368993432
 20
395.2660805885998
 30
0.0
 11
608.4071861391951
 21
377.315499224691
 31
0.0
  0
ARC
  5
1A22
102
{ACAD_REACTORS
330
1A2C
102
}
330
1F
100
AcDbEntity
  8
0
  6
Continuous
 62
     7
370
    15
100
AcDbCircle
 10
583.8108659143845
 20
353.8416620565034
 30
0.0
 40
34.0
100
AcDbArc
 50
283.6623331460084
 51
43.66233314600731
  0
LINE
  5
1A23
102
{ACAD_REACTORS
330
1A2C
102
}
330
1F
100
AcDbEntity
  8
0
  6
Continuous
 62
     7
370
    15
100
AcDbLine
 10
597.9828292076993
 20
295.5393854593328
 30
0.0
 11
591.8416451139294
 21
320.8037053181066
 31
0.0
  0
ARC
  5
1A24
102
{ACAD_REACTORS
330
1A2C
102
}
330
1F
100
AcDbEntity
  8
0
  6
Continuous
 62
     7
370
    15
100
AcDbCircle
 10
654.3315153192534
 20
63.72558411306886
 30
0.0
 40
238.5640646055135
100
AcDbArc
 50
73.66233314600863
 51
103.6623331460079
  0
LINE
  5
1A25
102
{ACAD_REACTORS
330
1A2C
102
}
330
1F
100
AcDbEntity
  8
0
  6
Continuous
 62
     7
370
    15
100
AcDbLine
 10
817.3211273343929
 20
264.5502413512674
 30
0.0
 11
721.4390223499031
 21
292.65656808255
 31
0.0
  0
ARC
  5
1A26
102
{ACAD_REACTORS
330
1A2C
102
}
330
1F
100
AcDbEntity
  8
0
  6
Continuous
 62
     7
370
    15
100
AcDbCircle
 10
787.281755021118
 20
162.073732152935
 30
0.0
 40
106.788570673324
100
AcDbArc
 50
27.64711794104066
 51
73.66233314600846
  0
ARC
  5
1A27
102
{ACAD_REACTORS
330
1A2C
102
}
330
1F
100
AcDbEntity
  8
0
  6
Continuous
 62
     7
370
    15
100
AcDbCircle
 10
948.3141215363141
 20
246.4281117782135
 30
0.0
 40
75.00000000000013
100
AcDbArc
 50
207.6471179410401
 51
26.70338436904802
  0
CIRCLE
  5
1A28
102
{ACAD_REACTORS
330
1A2C
102
}
330
1F
100
AcDbEntity
  8
0
  6
Continuous
 62
     7
370
    15
100
AcDbCircle
 10
635.630376764831
 20
338.6515897979367
 30
0.0
 40
1.249999999999943
  0
CIRCLE
  5
1A29
102
{ACAD_REACTORS
330
1A2C
102
}
330
1F
100
AcDbEntity
  8
0
  6
Continuous
 62
     7
370
    15
100
AcDbCircle
 10
620.9785672450807
 20
362.8762886559919
 30
0.0
 40
1.249999999999943
  0
CIRCLE
  5
1A2A
102
{ACAD_REACTORS
330
1A2C
102
}
330
1F
100
AcDbEntity
  8
0
  6
Continuous
 62
     7
370
    15
100
AcDbCircle
 10
618.0903230185663
 20
336.8716496627952
 30
0.0
 40
1.25
  0
CIRCLE
  5
1A2B
102
{ACAD_REACTORS
330
1A2C
102
}
330
1F
100
AcDbEntity
  8
0
  6
Continuous
 62
     7
370
    15
100
AcDbCircle
 10
599.1623398392753
 20
318.8074680692944
 30
0.0
 40
1.25
  0
ARC
  5
1A2D
102
{ACAD_REACTORS
330
1A41
102
}
330
1F
100
AcDbEntity
  8
0
  6
Continuous
 62
     7
370
    15
100
AcDbCircle
 10
577.3720168461812
 20
652.0975092240523
 30
0.0
 40
15.00000000000001
100
AcDbArc
 50
6.176962034045771
 51
186.1769620340432
  0
ARC
  5
1A2E
102
{ACAD_REACTORS
330
1A41
102
}
330
1F
100
AcDbEntity
  8
0
  6
Continuous
 62
     7
370
    15
100
AcDbCircle
 10
718.1540407875042
 20
468.177819250452
 30
0.0
 40
1.5000000000001
100
AcDbArc
 50
186.1769620340609
 51
265.5864542367442
  0
LINE
  5
1A2F
102
{ACAD_REACTORS
330
1A41
102
}
330
1F
100
AcDbEntity
  8
0
  6
Continuous
 62
     7
370
    15
100
AcDbLine
 10
716.6627493241689
 20
468.0164198347663
 30
0.0
 11
716.2323508823416
 21
471.9931970703277
 31
0.0
  0
ARC
  5
1A30
102
{ACAD_REACTORS
330
1A41
102
}
330
1F
100
AcDbEntity
  8
0
  6
Continuous
 62
     7
370
    15
100
AcDbCircle
 10
717.7236423456756
 20
472.1545964860118
 30
0.0
 40
1.500000000000044
100
AcDbArc
 50
6.176962034082994
 51
186.1769620340044
  0
LINE
  5
1A31
102
{ACAD_REACTORS
330
1A41
102
}
330
1F
100
AcDbEntity
  8
0
  6
Continuous
 62
     7
370
    15
100
AcDbLine
 10
719.6453322508399
 20
468.3392186661363
 30
0.0
 11
719.2149338090114
 21
472.3159959016984
 31
0.0
  0
ARC
  5
1A32
102
{ACAD_REACTORS
330
1A41
102
}
330
1F
100
AcDbEntity
  8
0
  6
Continuous
 62
     7
370
    15
100
AcDbCircle
 10
718.1540407875042
 20
468.177819250452
 30
0.0
 40
1.50000000000001
100
AcDbArc
 50
278.9866484986974
 51
6.176962034017768
  0
ARC
  5
1A33
102
{ACAD_REACTORS
330
1A41
102
}
330
1F
100
AcDbEntity
  8
0
  6
Continuous
 62
     7
370
    15
100
AcDbCircle
 10
658.1131990291261
 20
463.6914013089928
 30
0.0
 40
60.35000000000016
100
AcDbArc
 50
186.1769620340434
 51
2.853940942198106
  0
LINE
  5
1A34
102
{ACAD_REACTORS
330
1A41
102
}
330
1F
100
AcDbEntity
  8
0
  6
Continuous
 62
     7
370
    15
100
AcDbLine
 10
598.1135724876054
 20
457.1977648179247
 30
0.0
 11
577.3995452986699
 21
648.5903531182478
 31
0.0
  0
ARC
  5
1A35
102
{ACAD_REACTORS
330
1A41
102
}
330
1F
100
AcDbEntity
  8
0
  6
Continuous
 62
     7
370
    15
100
AcDbCircle
 10
577.4132320630393
 20
650.0902906744415
 30
0.0
 40
1.500000000000088
100
AcDbArc
 50
186.176962034013
 51
269.4771968563345
  0
LINE
  5
1A36
102
{ACAD_REACTORS
330
1A41
102
}
330
1F
100
AcDbEntity
  8
0
  6
Continuous
 62
     7
370
    15
100
AcDbLine
 10
575.9219405997047
 20
649.9288912587571
 30
0.0
 11
575.4915421578759
 21
653.9056684943178
 31
0.0
  0
ARC
  5
1A37
102
{ACAD_REACTORS
330
1A41
102
}
330
1F
100
AcDbEntity
  8
0
  6
Continuous
 62
     7
370
    15
100
AcDbCircle
 10
576.9828336212122
 20
654.0670679100026
 30
0.0
 40
1.500000000000039
100
AcDbArc
 50
6.176962034061408
 51
186.1769620340921
  0
LINE
  5
1A38
102
{ACAD_REACTORS
330
1A41
102
}
330
1F
100
AcDbEntity
  8
0
  6
Continuous
 62
     7
370
    15
100
AcDbLine
 10
578.9045235263751
 20
650.2516900901269
 30
0.0
 11
578.474125084547
 21
654.2284673256883
 31
0.0
  0
ARC
  5
1A39
102
{ACAD_REACTORS
330
1A41
102
}
330
1F
100
AcDbEntity
  8
0
  6
Continuous
 62
     7
370
    15
100
AcDbCircle
 10
577.4132320630393
 20
650.0902906744415
 30
0.0
 40
1.500000000000047
100
AcDbArc
 50
282.8767272117859
 51
6.176962034087312
  0
LINE
  5
1A3A
102
{ACAD_REACTORS
330
1A41
102
}
330
1F
100
AcDbEntity
  8
0
  6
Continuous
 62
     7
370
    15
100
AcDbLine
 10
598.4615404957177
 20
457.235424681583
 30
0.0
 11
577.747513306781
 21
648.6280129819074
 31
0.0
  0
ARC
  5
1A3B
102
{ACAD_REACTORS
330
1A41
102
}
330
1F
100
AcDbEntity
  8
0
  6
Continuous
 62
     7
370
    15
100
AcDbCircle
 10
658.1131990291261
 20
463.6914013089928
 30
0.0
 40
60.00000000000011
100
AcDbArc
 50
186.1769620340427
 51
2.857250823860995
  0
LINE
  5
1A3C
102
{ACAD_REACTORS
330
1A41
102
}
330
1F
100
AcDbEntity
  8
0
  6
Continuous
 62
     7
370
    15
100
AcDbLine
 10
583.5486258623658
 20
455.621430524732
 30
0.0
 11
562.4591022128292
 21
650.4835150672006
 31
0.0
  0
ARC
  5
1A3D
102
{ACAD_REACTORS
330
1A41
102
}
330
1F
100
AcDbEntity
  8
0
  6
Continuous
 62
     7
370
    15
100
AcDbCircle
 10
658.1131990291261
 20
463.6914013089928
 30
0.0
 40
75.00000000000004
100
AcDbArc
 50
186.1769620340445
 51
6.176962034044994
  0
ARC
  5
1A3E
102
{ACAD_REACTORS
330
1A41
102
}
330
1F
100
AcDbEntity
  8
0
  6
Continuous
 62
     7
370
    15
100
AcDbCircle
 10
717.764857562534
 20
470.147377936403
 30
0.0
 40
14.99999999999997
100
AcDbArc
 50
6.176962034039681
 51
186.1769620340497
  0
ARC
  5
1A3F
102
{ACAD_REACTORS
330
1A41
102
}
330
1F
100
AcDbEntity
  8
0
  6
Continuous
 62
     7
370
    15
100
AcDbCircle
 10
658.1131990291261
 20
463.6914013089928
 30
0.0
 40
45.00000000000011
100
AcDbArc
 50
186.1769620340443
 51
6.176962034045036
  0
LINE
  5
1A40
102
{ACAD_REACTORS
330
1A41
102
}
330
1F
100
AcDbEntity
  8
0
  6
Continuous
 62
     7
370
    15
100
AcDbLine
 10
613.37445512907
 20
458.8494188384362
 30
0.0
 11
592.2849314795335
 21
653.7115033809039
 31
0.0
  0
ENDSEC
  0
SECTION
  2
OBJECTS
  0
DICTIONARY
  5
C
330
0
100
AcDbDictionary
281
     1
  3
ACAD_DETAILVIEWSTYLE
350
6BE
  3
ACAD_GROUP
350
D
  3
ACAD_IMAGE_VARS
350
183
  3
ACAD_LAYOUT
350
1A
  3
ACAD_MATERIAL
350
17B
  3
ACAD_MLEADERSTYLE
350
1D7
  3
ACAD_MLINESTYLE
350
17
  3
ACAD_PLOTSETTINGS
350
19
  3
ACAD_PLOTSTYLENAME
350
E
  3
ACAD_SCALELIST
350
47
  3
ACAD_SECTIONVIEWSTYLE
350
6BF
  3
ACAD_TABLESTYLE
350
17F
  3
ACAD_VISUALSTYLE
350
162
  3
ACDB_RECOMPOSE_DATA
350
1A44
  3
AcDbVariableDictionary
350
6BA
  3
APPDATA
350
181
  0
SUN
  5
182
330
29
100
AcDbSun
 90
        1
290
     0
 63
     7
421
 16777215
 40
1.0
291
     1
 91
  2455826
 92
 54000000
292
     0
 70
     2
 71
   256
280
     1
  0
DICTIONARY
  5
6BE
102
{ACAD_REACTORS
330
C
102
}
330
C
100
AcDbDictionary
281
     1
  0
DICTIONARY
  5
D
102
{ACAD_REACTORS
330
C
102
}
330
C
100
AcDbDictionary
281
     1
  3
*A1
350
20C
  3
*A10
350
565
  3
*A11
350
566
  3
*A12
350
5AF
  3
*A13
350
5B0
  3
*A14
350
5B1
  3
*A15
350
5BA
  3
*A16
350
5C3
  3
*A17
350
60C
  3
*A18
350
60D
  3
*A19
350
60E
  3
*A2
350
20D
  3
*A20
350
61F
  3
*A21
350
620
  3
*A22
350
631
  3
*A23
350
632
  3
*A24
350
643
  3
*A25
350
644
  3
*A26
350
64D
  3
*A27
350
656
  3
*A28
350
65F
  3
*A29
350
67D
  3
*A3
350
3D8
  3
*A30
350
69B
  3
*A31
350
6B9
  3
*A32
350
6F8
  3
*A33
350
A1A
  3
*A34
350
A38
  3
*A35
350
A56
  3
*A36
350
A74
  3
*A37
350
CC7
  3
*A38
350
CC8
  3
*A39
350
CC9
  3
*A4
350
49D
  3
*A40
350
CCA
  3
*A41
350
E17
  3
*A42
350
E18
  3
*A43
350
E19
  3
*A44
350
E1A
  3
*A45
350
148D
  3
*A46
350
148E
  3
*A47
350
148F
  3
*A48
350
1490
  3
*A49
350
1491
  3
*A5
350
4B6
  3
*A50
350
14A6
  3
*A51
350
14BB
  3
*A52
350
14BC
  3
*A53
350
14E0
  3
*A54
350
14E1
  3
*A55
350
14E2
  3
*A56
350
1507
  3
*A59
350
17C0
  3
*A6
350
519
  3
*A60
350
17C1
  3
*A61
350
17C2
  3
*A62
350
17C3
  3
*A63
350
17C4
  3
*A64
350
17C5
  3
*A65
350
17C6
  3
*A66
350
17C7
  3
*A67
350
17C8
  3
*A68
350
17C9
  3
*A69
350
17CA
  3
*A7
350
51A
  3
*A70
350
17CB
  3
*A71
350
17F0
  3
*A72
350
1815
  3
*A73
350
183A
  3
*A74
350
183B
  3
*A75
350
1864
  3
*A76
350
188D
  3
*A77
350
18B6
  3
*A78
350
18DB
  3
*A79
350
1900
  3
*A8
350
51B
  3
*A80
350
1925
  3
*A81
350
194E
  3
*A83
350
1978
  3
*A84
350
198D
  3
*A85
350
19A2
  3
*A86
350
19B7
  3
*A87
350
19CC
  3
*A88
350
19E1
  3
*A89
350
19FF
  3
*A9
350
564
  3
*A90
350
1A2C
  3
*A91
350
1A41
  0
RASTERVARIABLES
  5
183
102
{ACAD_REACTORS
330
C
102
}
330
C
100
AcDbRasterVariables
 90
        0
 70
     1
 71
     1
 72
     1
  0
DICTIONARY
  5
1A
102
{ACAD_REACTORS
330
C
102
}
330
C
100
AcDbDictionary
281
     1
  3
Layout1
350
1E
  3
Layout2
350
26
  3
Model
350
22
  0
DICTIONARY
  5
17B
102
{ACAD_REACTORS
330
C
102
}
330
C
100
AcDbDictionary
281
     1
  3
ByBlock
350
17D
  3
ByLayer
350
17C
  3
Global
350
17E
  0
DICTIONARY
  5
1D7
102
{ACAD_REACTORS
330
C
102
}
330
C
100
AcDbDictionary
281
     1
  0
DICTIONARY
  5
17
102
{ACAD_REACTORS
330
C
102
}
330
C
100
AcDbDictionary
281
     1
  3
Standard
350
18
  0
DICTIONARY
  5
19
102
{ACAD_REACTORS
330
C
102
}
330
C
100
AcDbDictionary
281
     1
  0
ACDBDICTIONARYWDFLT
  5
E
102
{ACAD_REACTORS
330
C
102
}
330
C
100
AcDbDictionary
281
     1
  3
Normal
350
F
100
AcDbDictionaryWithDefault
340
F
  0
DICTIONARY
  5
47
102
{ACAD_REACTORS
330
C
102
}
330
C
100
AcDbDictionary
281
     1
  3
A0
350
48
  3
A1
350
49
  3
A2
350
4A
  3
A3
350
4B
  3
A4
350
4C
  3
A5
350
4D
  3
A6
350
4E
  3
A7
350
4F
  3
A8
350
50
  3
A9
350
51
  3
B0
350
52
  3
B1
350
53
  3
B2
350
54
  3
B3
350
55
  3
B4
350
56
  3
B5
350
57
  3
B6
350
58
  3
B7
350
59
  3
B8
350
5A
  3
B9
350
5B
  3
C0
350
5C
  3
C1
350
5D
  3
C2
350
5E
  3
C3
350
5F
  3
C4
350
60
  3
C5
350
61
  3
C6
350
62
  3
C7
350
63
  3
C8
350
64
  3
C9
350
65
  3
D0
350
66
  3
D1
350
67
  3
D2
350
68
  0
DICTIONARY
  5
6BF
102
{ACAD_REACTORS
330
C
102
}
330
C
100
AcDbDictionary
281
     1
  0
DICTIONARY
  5
17F
102
{ACAD_REACTORS
330
C
102
}
330
C
100
AcDbDictionary
281
     1
  3
Standard
350
180
  0
DICTIONARY
  5
162
102
{ACAD_REACTORS
330
C
102
}
330
C
100
AcDbDictionary
281
     1
  3
2dWireframe
350
167
  3
Basic
350
16A
  3
Brighten
350
16E
  3
ColorChange
350
172
  3
Conceptual
350
16C
  3
Dim
350
16D
  3
EdgeColorOff
350
175
  3
Facepattern
350
171
  3
Flat
350
163
  3
FlatWithEdges
350
164
  3
Gouraud
350
165
  3
GouraudWithEdges
350
166
  3
Hidden
350
169
  3
JitterOff
350
173
  3
Linepattern
350
170
  3
OverhangOff
350
174
  3
Realistic
350
16B
  3
Shaded
350
17A
  3
Shaded with edges
350
179
  3
Shades of Gray
350
176
  3
Sketchy
350
177
  3
Thicken
350
16F
  3
Wireframe
350
168
  3
X-Ray
350
178
  0
XRECORD
  5
1A44
102
{ACAD_REACTORS
330
C
102
}
330
C
100
AcDbXrecord
280
     1
 90
        1
330
180
  0
DICTIONARY
  5
6BA
102
{ACAD_REACTORS
330
C
102
}
330
C
100
AcDbDictionary
281
     1
  3
CANNOSCALE
350
6BB
  3
CTABLESTYLE
350
6BC
  3
MSLTSCALE
350
6BD
  0
DICTIONARY
  5
181
102
{ACAD_REACTORS
330
C
102
}
330
C
100
AcDbDictionary
281
     1
  0
GROUP
  5
20C
102
{ACAD_REACTORS
330
D
102
}
330
D
100
AcDbGroup
300

 70
     1
 71
     1
  0
GROUP
  5
565
102
{ACAD_REACTORS
330
D
102
}
330
D
100
AcDbGroup
300

 70
     1
 71
     1
  0
GROUP
  5
566
102
{ACAD_REACTORS
330
D
102
}
330
D
100
AcDbGroup
300

 70
     1
 71
     1
  0
GROUP
  5
5AF
102
{ACAD_REACTORS
330
D
102
}
330
D
100
AcDbGroup
300

 70
     1
 71
     1
  0
GROUP
  5
5B0
102
{ACAD_REACTORS
330
D
102
}
330
D
100
AcDbGroup
300

 70
     1
 71
     1
  0
GROUP
  5
5B1
102
{ACAD_REACTORS
330
D
102
}
330
D
100
AcDbGroup
300

 70
     1
 71
     1
  0
GROUP
  5
5BA
102
{ACAD_REACTORS
330
D
102
}
330
D
100
AcDbGroup
300

 70
     1
 71
     1
  0
GROUP
  5
5C3
102
{ACAD_REACTORS
330
D
102
}
330
D
100
AcDbGroup
300

 70
     1
 71
     1
  0
GROUP
  5
60C
102
{ACAD_REACTORS
330
D
102
}
330
D
100
AcDbGroup
300

 70
     1
 71
     1
  0
GROUP
  5
60D
102
{ACAD_REACTORS
330
D
102
}
330
D
100
AcDbGroup
300

 70
     1
 71
     1
  0
GROUP
  5
60E
102
{ACAD_REACTORS
330
D
102
}
330
D
100
AcDbGroup
300

 70
     1
 71
     1
  0
GROUP
  5
20D
102
{ACAD_REACTORS
330
D
102
}
330
D
100
AcDbGroup
300

 70
     1
 71
     1
  0
GROUP
  5
61F
102
{ACAD_REACTORS
330
D
102
}
330
D
100
AcDbGroup
300

 70
     1
 71
     1
  0
GROUP
  5
620
102
{ACAD_REACTORS
330
D
102
}
330
D
100
AcDbGroup
300

 70
     1
 71
     1
  0
GROUP
  5
631
102
{ACAD_REACTORS
330
D
102
}
330
D
100
AcDbGroup
300

 70
     1
 71
     1
  0
GROUP
  5
632
102
{ACAD_REACTORS
330
D
102
}
330
D
100
AcDbGroup
300

 70
     1
 71
     1
  0
GROUP
  5
643
102
{ACAD_REACTORS
330
D
102
}
330
D
100
AcDbGroup
300

 70
     1
 71
     1
  0
GROUP
  5
644
102
{ACAD_REACTORS
330
D
102
}
330
D
100
AcDbGroup
300

 70
     1
 71
     1
  0
GROUP
  5
64D
102
{ACAD_REACTORS
330
D
102
}
330
D
100
AcDbGroup
300

 70
     1
 71
     1
  0
GROUP
  5
656
102
{ACAD_REACTORS
330
D
102
}
330
D
100
AcDbGroup
300

 70
     1
 71
     1
  0
GROUP
  5
65F
102
{ACAD_REACTORS
330
D
102
}
330
D
100
AcDbGroup
300

 70
     1
 71
     1
  0
GROUP
  5
67D
102
{ACAD_REACTORS
330
D
102
}
330
D
100
AcDbGroup
300

 70
     1
 71
     1
  0
GROUP
  5
3D8
102
{ACAD_REACTORS
330
D
102
}
330
D
100
AcDbGroup
300

 70
     1
 71
     1
  0
GROUP
  5
69B
102
{ACAD_REACTORS
330
D
102
}
330
D
100
AcDbGroup
300

 70
     1
 71
     1
  0
GROUP
  5
6B9
102
{ACAD_REACTORS
330
D
102
}
330
D
100
AcDbGroup
300

 70
     1
 71
     1
  0
GROUP
  5
6F8
102
{ACAD_REACTORS
330
D
102
}
330
D
100
AcDbGroup
300

 70
     1
 71
     1
  0
GROUP
  5
A1A
102
{ACAD_REACTORS
330
D
102
}
330
D
100
AcDbGroup
300

 70
     1
 71
     1
  0
GROUP
  5
A38
102
{ACAD_REACTORS
330
D
102
}
330
D
100
AcDbGroup
300

 70
     1
 71
     1
  0
GROUP
  5
A56
102
{ACAD_REACTORS
330
D
102
}
330
D
100
AcDbGroup
300

 70
     1
 71
     1
  0
GROUP
  5
A74
102
{ACAD_REACTORS
330
D
102
}
330
D
100
AcDbGroup
300

 70
     1
 71
     1
  0
GROUP
  5
CC7
102
{ACAD_REACTORS
330
D
102
}
330
D
100
AcDbGroup
300

 70
     1
 71
     1
  0
GROUP
  5
CC8
102
{ACAD_REACTORS
330
D
102
}
330
D
100
AcDbGroup
300

 70
     1
 71
     1
  0
GROUP
  5
CC9
102
{ACAD_REACTORS
330
D
102
}
330
D
100
AcDbGroup
300

 70
     1
 71
     1
  0
GROUP
  5
49D
102
{ACAD_REACTORS
330
D
102
}
330
D
100
AcDbGroup
300

 70
     1
 71
     1
  0
GROUP
  5
CCA
102
{ACAD_REACTORS
330
D
102
}
330
D
100
AcDbGroup
300

 70
     1
 71
     1
  0
GROUP
  5
E17
102
{ACAD_REACTORS
330
D
102
}
330
D
100
AcDbGroup
300

 70
     1
 71
     1
  0
GROUP
  5
E18
102
{ACAD_REACTORS
330
D
102
}
330
D
100
AcDbGroup
300

 70
     1
 71
     1
  0
GROUP
  5
E19
102
{ACAD_REACTORS
330
D
102
}
330
D
100
AcDbGroup
300

 70
     1
 71
     1
  0
GROUP
  5
E1A
102
{ACAD_REACTORS
330
D
102
}
330
D
100
AcDbGroup
300

 70
     1
 71
     1
  0
GROUP
  5
148D
102
{ACAD_REACTORS
330
D
102
}
330
D
100
AcDbGroup
300

 70
     1
 71
     1
  0
GROUP
  5
148E
102
{ACAD_REACTORS
330
D
102
}
330
D
100
AcDbGroup
300

 70
     1
 71
     1
  0
GROUP
  5
148F
102
{ACAD_REACTORS
330
D
102
}
330
D
100
AcDbGroup
300

 70
     1
 71
     1
340
1329
340
132A
340
132B
340
132C
340
132D
340
132E
340
132F
340
1330
340
1331
340
1332
340
1333
340
1334
340
1335
340
1336
340
1337
340
1338
340
1339
340
133A
340
133B
340
133C
340
133D
340
133E
340
133F
340
1340
340
1341
340
1342
340
1343
340
1344
340
1345
  0
GROUP
  5
1490
102
{ACAD_REACTORS
330
D
102
}
330
D
100
AcDbGroup
300

 70
     1
 71
     1
340
1380
340
1381
340
1382
340
1383
340
1384
340
1385
340
1386
340
1387
340
1388
340
1389
340
138A
340
138B
340
138C
340
138D
340
138E
340
138F
340
1390
340
1391
340
1392
340
1393
340
1394
340
1395
340
1396
340
1397
340
1398
340
1399
340
139A
340
139B
340
139C
  0
GROUP
  5
1491
102
{ACAD_REACTORS
330
D
102
}
330
D
100
AcDbGroup
300

 70
     1
 71
     1
  0
GROUP
  5
4B6
102
{ACAD_REACTORS
330
D
102
}
330
D
100
AcDbGroup
300

 70
     1
 71
     1
  0
GROUP
  5
14A6
102
{ACAD_REACTORS
330
D
102
}
330
D
100
AcDbGroup
300

 70
     1
 71
     1
  0
GROUP
  5
14BB
102
{ACAD_REACTORS
330
D
102
}
330
D
100
AcDbGroup
300

 70
     1
 71
     1
  0
GROUP
  5
14BC
102
{ACAD_REACTORS
330
D
102
}
330
D
100
AcDbGroup
300

 70
     1
 71
     1
  0
GROUP
  5
14E0
102
{ACAD_REACTORS
330
D
102
}
330
D
100
AcDbGroup
300

 70
     1
 71
     1
  0
GROUP
  5
14E1
102
{ACAD_REACTORS
330
D
102
}
330
D
100
AcDbGroup
300

 70
     1
 71
     1
  0
GROUP
  5
14E2
102
{ACAD_REACTORS
330
D
102
}
330
D
100
AcDbGroup
300

 70
     1
 71
     1
  0
GROUP
  5
1507
102
{ACAD_REACTORS
330
D
102
}
330
D
100
AcDbGroup
300

 70
     1
 71
     1
  0
GROUP
  5
17C0
102
{ACAD_REACTORS
330
D
102
}
330
D
100
AcDbGroup
300

 70
     1
 71
     1
  0
GROUP
  5
519
102
{ACAD_REACTORS
330
D
102
}
330
D
100
AcDbGroup
300

 70
     1
 71
     1
  0
GROUP
  5
17C1
102
{ACAD_REACTORS
330
D
102
}
330
D
100
AcDbGroup
300

 70
     1
 71
     1
  0
GROUP
  5
17C2
102
{ACAD_REACTORS
330
D
102
}
330
D
100
AcDbGroup
300

 70
     1
 71
     1
  0
GROUP
  5
17C3
102
{ACAD_REACTORS
330
D
102
}
330
D
100
AcDbGroup
300

 70
     1
 71
     1
  0
GROUP
  5
17C4
102
{ACAD_REACTORS
330
D
102
}
330
D
100
AcDbGroup
300

 70
     1
 71
     1
  0
GROUP
  5
17C5
102
{ACAD_REACTORS
330
D
102
}
330
D
100
AcDbGroup
300

 70
     1
 71
     1
  0
GROUP
  5
17C6
102
{ACAD_REACTORS
330
D
102
}
330
D
100
AcDbGroup
300

 70
     1
 71
     1
  0
GROUP
  5
17C7
102
{ACAD_REACTORS
330
D
102
}
330
D
100
AcDbGroup
300

 70
     1
 71
     1
  0
GROUP
  5
17C8
102
{ACAD_REACTORS
330
D
102
}
330
D
100
AcDbGroup
300

 70
     1
 71
     1
  0
GROUP
  5
17C9
102
{ACAD_REACTORS
330
D
102
}
330
D
100
AcDbGroup
300

 70
     1
 71
     1
  0
GROUP
  5
17CA
102
{ACAD_REACTORS
330
D
102
}
330
D
100
AcDbGroup
300

 70
     1
 71
     1
  0
GROUP
  5
51A
102
{ACAD_REACTORS
330
D
102
}
330
D
100
AcDbGroup
300

 70
     1
 71
     1
  0
GROUP
  5
17CB
102
{ACAD_REACTORS
330
D
102
}
330
D
100
AcDbGroup
300

 70
     1
 71
     1
  0
GROUP
  5
17F0
102
{ACAD_REACTORS
330
D
102
}
330
D
100
AcDbGroup
300

 70
     1
 71
     1
340
17CC
340
17CD
340
17CE
340
17CF
340
17D0
340
17D1
340
17D2
340
17D3
340
17D4
340
17D5
340
17D6
340
17D7
340
17D8
340
17D9
340
17DA
340
17DB
340
17DC
340
17DD
340
17DE
340
17DF
340
17E0
340
17E1
340
17E2
340
17E3
340
17E4
340
17E5
340
17E6
340
17E7
340
17E8
340
17E9
340
17EA
340
17EB
340
17EC
340
17ED
340
17EE
340
17EF
  0
GROUP
  5
1815
102
{ACAD_REACTORS
330
D
102
}
330
D
100
AcDbGroup
300

 70
     1
 71
     1
340
17F1
340
17F2
340
17F3
340
17F4
340
17F5
340
17F6
340
17F7
340
17F8
340
17F9
340
17FA
340
17FB
340
17FC
340
17FD
340
17FE
340
17FF
340
1800
340
1801
340
1802
340
1803
340
1804
340
1805
340
1806
340
1807
340
1808
340
1809
340
180A
340
180B
340
180C
340
180D
340
180E
340
180F
340
1810
340
1811
340
1812
340
1813
340
1814
  0
GROUP
  5
183A
102
{ACAD_REACTORS
330
D
102
}
330
D
100
AcDbGroup
300

 70
     1
 71
     1
340
1816
340
1817
340
1818
340
1819
340
181A
340
181B
340
181C
340
181D
340
181E
340
181F
340
1820
340
1821
340
1822
340
1823
340
1824
340
1825
340
1826
340
1827
340
1828
340
1829
340
182A
340
182B
340
182C
340
182D
340
182E
340
182F
340
1830
340
1831
340
1832
340
1833
340
1834
340
1835
340
1836
340
1837
340
1838
340
1839
  0
GROUP
  5
183B
102
{ACAD_REACTORS
330
D
102
}
330
D
100
AcDbGroup
300

 70
     1
 71
     1
340
1465
340
1466
340
1467
340
1468
340
1469
340
146A
340
146B
340
146C
340
146D
340
146E
340
146F
340
1470
340
1471
340
1472
340
1473
340
1474
340
1475
340
1476
340
1477
340
1478
340
1479
340
147A
340
147B
340
147C
340
147D
340
147E
340
147F
340
1480
340
1481
340
1482
340
1483
340
1484
340
1485
340
1486
340
1487
340
1488
340
1489
340
148A
340
148B
340
148C
  0
GROUP
  5
1864
102
{ACAD_REACTORS
330
D
102
}
330
D
100
AcDbGroup
300

 70
     1
 71
     1
340
183C
340
183D
340
183E
340
183F
340
1840
340
1841
340
1842
340
1843
340
1844
340
1845
340
1846
340
1847
340
1848
340
1849
340
184A
340
184B
340
184C
340
184D
340
184E
340
184F
340
1850
340
1851
340
1852
340
1853
340
1854
340
1855
340
1856
340
1857
340
1858
340
1859
340
185A
340
185B
340
185C
340
185D
340
185E
340
185F
340
1860
340
1861
340
1862
340
1863
  0
GROUP
  5
188D
102
{ACAD_REACTORS
330
D
102
}
330
D
100
AcDbGroup
300

 70
     1
 71
     1
340
1865
340
1866
340
1867
340
1868
340
1869
340
186A
340
186B
340
186C
340
186D
340
186E
340
186F
340
1870
340
1871
340
1872
340
1873
340
1874
340
1875
340
1876
340
1877
340
1878
340
1879
340
187A
340
187B
340
187C
340
187D
340
187E
340
187F
340
1880
340
1881
340
1882
340
1883
340
1884
340
1885
340
1886
340
1887
340
1888
340
1889
340
188A
340
188B
340
188C
  0
GROUP
  5
18B6
102
{ACAD_REACTORS
330
D
102
}
330
D
100
AcDbGroup
300

 70
     1
 71
     1
340
188E
340
188F
340
1890
340
1891
340
1892
340
1893
340
1894
340
1895
340
1896
340
1897
340
1898
340
1899
340
189A
340
189B
340
189C
340
189D
340
189E
340
189F
340
18A0
340
18A1
340
18A2
340
18A3
340
18A4
340
18A5
340
18A6
340
18A7
340
18A8
340
18A9
340
18AA
340
18AB
340
18AC
340
18AD
340
18AE
340
18AF
340
18B0
340
18B1
340
18B2
340
18B3
340
18B4
340
18B5
  0
GROUP
  5
18DB
102
{ACAD_REACTORS
330
D
102
}
330
D
100
AcDbGroup
300

 70
     1
 71
     1
340
18B7
340
18B8
340
18B9
340
18BA
340
18BB
340
18BC
340
18BD
340
18BE
340
18BF
340
18C0
340
18C1
340
18C2
340
18C3
340
18C4
340
18C5
340
18C6
340
18C7
340
18C8
340
18C9
340
18CA
340
18CB
340
18CC
340
18CD
340
18CE
340
18CF
340
18D0
340
18D1
340
18D2
340
18D3
340
18D4
340
18D5
340
18D6
340
18D7
340
18D8
340
18D9
340
18DA
  0
GROUP
  5
1900
102
{ACAD_REACTORS
330
D
102
}
330
D
100
AcDbGroup
300

 70
     1
 71
     1
340
18DC
340
18DD
340
18DE
340
18DF
340
18E0
340
18E1
340
18E2
340
18E3
340
18E4
340
18E5
340
18E6
340
18E7
340
18E8
340
18E9
340
18EA
340
18EB
340
18EC
340
18ED
340
18EE
340
18EF
340
18F0
340
18F1
340
18F2
340
18F3
340
18F4
340
18F5
340
18F6
340
18F7
340
18F8
340
18F9
340
18FA
340
18FB
340
18FC
340
18FD
340
18FE
340
18FF
  0
GROUP
  5
51B
102
{ACAD_REACTORS
330
D
102
}
330
D
100
AcDbGroup
300

 70
     1
 71
     1
  0
GROUP
  5
1925
102
{ACAD_REACTORS
330
D
102
}
330
D
100
AcDbGroup
300

 70
     1
 71
     1
340
1901
340
1902
340
1903
340
1904
340
1905
340
1906
340
1907
340
1908
340
1909
340
190A
340
190B
340
190C
340
190D
340
190E
340
190F
340
1910
340
1911
340
1912
340
1913
340
1914
340
1915
340
1916
340
1917
340
1918
340
1919
340
191A
340
191B
340
191C
340
191D
340
191E
340
191F
340
1920
340
1921
340
1922
340
1923
340
1924
  0
GROUP
  5
194E
102
{ACAD_REACTORS
330
D
102
}
330
D
100
AcDbGroup
300

 70
     1
 71
     1
  0
GROUP
  5
1978
102
{ACAD_REACTORS
330
D
102
}
330
D
100
AcDbGroup
300

 70
     1
 71
     1
  0
GROUP
  5
198D
102
{ACAD_REACTORS
330
D
102
}
330
D
100
AcDbGroup
300

 70
     1
 71
     1
  0
GROUP
  5
19A2
102
{ACAD_REACTORS
330
D
102
}
330
D
100
AcDbGroup
300

 70
     1
 71
     1
  0
GROUP
  5
19B7
102
{ACAD_REACTORS
330
D
102
}
330
D
100
AcDbGroup
300

 70
     1
 71
     1
340
19A3
340
19A4
340
19A5
340
19A6
340
19A7
340
19A8
340
19A9
340
19AA
340
19AB
340
19AC
340
19AD
340
19AE
340
19AF
340
19B0
340
19B1
340
19B2
340
19B3
340
19B4
340
19B5
340
19B6
  0
GROUP
  5
19CC
102
{ACAD_REACTORS
330
D
102
}
330
D
100
AcDbGroup
300

 70
     1
 71
     1
  0
GROUP
  5
19E1
102
{ACAD_REACTORS
330
D
102
}
330
D
100
AcDbGroup
300

 70
     1
 71
     1
  0
GROUP
  5
19FF
102
{ACAD_REACTORS
330
D
102
}
330
D
100
AcDbGroup
300

 70
     1
 71
     1
340
19E2
340
19E3
340
19E4
340
19E5
340
19E6
340
19E7
340
19E8
340
19E9
340
19EA
340
19EB
340
19EC
340
19ED
340
19EE
340
19EF
340
19F0
340
19F1
340
19F2
340
19F3
340
19F4
340
19F5
340
19F6
340
19F7
340
19F8
340
19F9
340
19FA
340
19FB
340
19FC
340
19FD
340
19FE
  0
GROUP
  5
564
102
{ACAD_REACTORS
330
D
102
}
330
D
100
AcDbGroup
300

 70
     1
 71
     1
  0
GROUP
  5
1A2C
102
{ACAD_REACTORS
330
D
102
}
330
D
100
AcDbGroup
300

 70
     1
 71
     1
340
1A08
340
1A09
340
1A0A
340
1A0B
340
1A0C
340
1A0D
340
1A0E
340
1A0F
340
1A10
340
1A11
340
1A12
340
1A13
340
1A14
340
1A15
340
1A16
340
1A17
340
1A18
340
1A19
340
1A1A
340
1A1B
340
1A1C
340
1A1D
340
1A1E
340
1A1F
340
1A20
340
1A21
340
1A22
340
1A23
340
1A24
340
1A25
340
1A26
340
1A27
340
1A28
340
1A29
340
1A2A
340
1A2B
  0
GROUP
  5
1A41
102
{ACAD_REACTORS
330
D
102
}
330
D
100
AcDbGroup
300

 70
     1
 71
     1
340
1A2D
340
1A2E
340
1A2F
340
1A30
340
1A31
340
1A32
340
1A33
340
1A34
340
1A35
340
1A36
340
1A37
340
1A38
340
1A39
340
1A3A
340
1A3B
340
1A3C
340
1A3D
340
1A3E
340
1A3F
340
1A40
  0
LAYOUT
  5
1E
102
{ACAD_REACTORS
330
1A
102
}
330
1A
100
AcDbPlotSettings
  1

  2
none_device
  4

  6

 40
0.0
 41
0.0
 42
0.0
 43
0.0
 44
0.0
 45
0.0
 46
0.0
 47
0.0
 48
0.0
 49
0.0
140
0.0
141
0.0
142
1.0
143
1.0
 70
   688
 72
     1
 73
     0
 74
     5
  7

 75
    16
 76
     0
 77
     2
 78
   300
147
1.0
148
0.0
149
0.0
100
AcDbLayout
  1
Layout1
 70
     1
 71
     1
 10
0.0
 20
0.0
 11
420.0
 21
297.0
 12
0.0
 22
0.0
 32
0.0
 14
1.000000000000000E+20
 24
1.000000000000000E+20
 34
1.000000000000000E+20
 15
-1.000000000000000E+20
 25
-1.000000000000000E+20
 35
-1.000000000000000E+20
146
0.0
 13
0.0
 23
0.0
 33
0.0
 16
1.0
 26
0.0
 36
0.0
 17
0.0
 27
1.0
 37
0.0
 76
     0
330
1B
  0
LAYOUT
  5
26
102
{ACAD_REACTORS
330
1A
102
}
330
1A
100
AcDbPlotSettings
  1

  2
none_device
  4

  6

 40
0.0
 41
0.0
 42
0.0
 43
0.0
 44
0.0
 45
0.0
 46
0.0
 47
0.0
 48
0.0
 49
0.0
140
0.0
141
0.0
142
1.0
143
1.0
 70
   688
 72
     1
 73
     0
 74
     5
  7

 75
    16
 76
     0
 77
     2
 78
   300
147
1.0
148
0.0
149
0.0
100
AcDbLayout
  1
Layout2
 70
     1
 71
     2
 10
0.0
 20
0.0
 11
0.0
 21
0.0
 12
0.0
 22
0.0
 32
0.0
 14
0.0
 24
0.0
 34
0.0
 15
0.0
 25
0.0
 35
0.0
146
0.0
 13
0.0
 23
0.0
 33
0.0
 16
1.0
 26
0.0
 36
0.0
 17
0.0
 27
1.0
 37
0.0
 76
     0
330
23
  0
LAYOUT
  5
22
102
{ACAD_REACTORS
330
1A
102
}
330
1A
100
AcDbPlotSettings
  1

  2
none_device
  4
Letter_(8.50_x_11.00_Inches)
  6

 40
6.35
 41
6.35
 42
6.35000508
 43
6.35000508
 44
215.9
 45
279.4
 46
0.0
 47
0.0
 48
0.0
 49
0.0
140
0.0
141
0.0
142
1.0
143
1.0
 70
  1712
 72
     1
 73
     0
 74
     0
  7

 75
     0
 76
     0
 77
     2
 78
   300
147
1.0
148
0.0
149
0.0
100
AcDbLayout
  1
Model
 70
     1
 71
     0
 10
0.0
 20
0.0
 11
594.0
 21
420.0
 12
0.0
 22
0.0
 32
0.0
 14
24.65336513743023
 24
134.3235533712545
 34
0.0
 15
1024.65336513743
 25
1034.323553371255
 35
0.0
146
0.0
 13
0.0
 23
0.0
 33
0.0
 16
1.0
 26
0.0
 36
0.0
 17
0.0
 27
1.0
 37
0.0
 76
     0
330
1F
331
29
  0
MATERIAL
  5
17D
102
{ACAD_REACTORS
330
17B
102
}
330
17B
100
AcDbMaterial
  1
ByBlock
 72
     1
 94
      127
  0
MATERIAL
  5
17C
102
{ACAD_REACTORS
330
17B
102
}
330
17B
100
AcDbMaterial
  1
ByLayer
 72
     1
 94
      127
  0
MATERIAL
  5
17E
102
{ACAD_REACTORS
330
17B
102
}
330
17B
100
AcDbMaterial
  1
Global
 72
     1
 94
      127
  0
MLINESTYLE
  5
18
102
{ACAD_REACTORS
330
17
102
}
330
17
100
AcDbMlineStyle
  2
Standard
 70
     0
  3

 62
   256
 51
90.0
 52
90.0
 71
     2
 49
0.5
 62
   256
  6
BYLAYER
 49
-0.5
 62
   256
  6
BYLAYER
  0
ACDBPLACEHOLDER
  5
F
102
{ACAD_REACTORS
330
E
102
}
330
E
  0
SCALE
  5
48
102
{ACAD_REACTORS
330
47
102
}
330
47
100
AcDbScale
 70
     0
300
1:1
140
1.0
141
1.0
290
     1
  0
SCALE
  5
49
102
{ACAD_REACTORS
330
47
102
}
330
47
100
AcDbScale
 70
     0
300
1:2
140
1.0
141
2.0
290
     0
  0
SCALE
  5
4A
102
{ACAD_REACTORS
330
47
102
}
330
47
100
AcDbScale
 70
     0
300
1:4
140
1.0
141
4.0
290
     0
  0
SCALE
  5
4B
102
{ACAD_REACTORS
330
47
102
}
330
47
100
AcDbScale
 70
     0
300
1:5
140
1.0
141
5.0
290
     0
  0
SCALE
  5
4C
102
{ACAD_REACTORS
330
47
102
}
330
47
100
AcDbScale
 70
     0
300
1:8
140
1.0
141
8.0
290
     0
  0
SCALE
  5
4D
102
{ACAD_REACTORS
330
47
102
}
330
47
100
AcDbScale
 70
     0
300
1:10
140
1.0
141
10.0
290
     0
  0
SCALE
  5
4E
102
{ACAD_REACTORS
330
47
102
}
330
47
100
AcDbScale
 70
     0
300
1:16
140
1.0
141
16.0
290
     0
  0
SCALE
  5
4F
102
{ACAD_REACTORS
330
47
102
}
330
47
100
AcDbScale
 70
     0
300
1:20
140
1.0
141
20.0
290
     0
  0
SCALE
  5
50
102
{ACAD_REACTORS
330
47
102
}
330
47
100
AcDbScale
 70
     0
300
1:30
140
1.0
141
30.0
290
     0
  0
SCALE
  5
51
102
{ACAD_REACTORS
330
47
102
}
330
47
100
AcDbScale
 70
     0
300
1:40
140
1.0
141
40.0
290
     0
  0
SCALE
  5
52
102
{ACAD_REACTORS
330
47
102
}
330
47
100
AcDbScale
 70
     0
300
1:50
140
1.0
141
50.0
290
     0
  0
SCALE
  5
53
102
{ACAD_REACTORS
330
47
102
}
330
47
100
AcDbScale
 70
     0
300
1:100
140
1.0
141
100.0
290
     0
  0
SCALE
  5
54
102
{ACAD_REACTORS
330
47
102
}
330
47
100
AcDbScale
 70
     0
300
2:1
140
2.0
141
1.0
290
     0
  0
SCALE
  5
55
102
{ACAD_REACTORS
330
47
102
}
330
47
100
AcDbScale
 70
     0
300
4:1
140
4.0
141
1.0
290
     0
  0
SCALE
  5
56
102
{ACAD_REACTORS
330
47
102
}
330
47
100
AcDbScale
 70
     0
300
8:1
140
8.0
141
1.0
290
     0
  0
SCALE
  5
57
102
{ACAD_REACTORS
330
47
102
}
330
47
100
AcDbScale
 70
     0
300
10:1
140
10.0
141
1.0
290
     0
  0
SCALE
  5
58
102
{ACAD_REACTORS
330
47
102
}
330
47
100
AcDbScale
 70
     0
300
100:1
140
100.0
141
1.0
290
     0
  0
SCALE
  5
59
102
{ACAD_REACTORS
330
47
102
}
330
47
100
AcDbScale
 70
     0
300
1/128" = 1'-0"
140
0.0078125
141
12.0
290
     0
  0
SCALE
  5
5A
102
{ACAD_REACTORS
330
47
102
}
330
47
100
AcDbScale
 70
     0
300
1/64" = 1'-0"
140
0.015625
141
12.0
290
     0
  0
SCALE
  5
5B
102
{ACAD_REACTORS
330
47
102
}
330
47
100
AcDbScale
 70
     0
300
1/32" = 1'-0"
140
0.03125
141
12.0
290
     0
  0
SCALE
  5
5C
102
{ACAD_REACTORS
330
47
102
}
330
47
100
AcDbScale
 70
     0
300
1/16" = 1'-0"
140
0.0625
141
12.0
290
     0
  0
SCALE
  5
5D
102
{ACAD_REACTORS
330
47
102
}
330
47
100
AcDbScale
 70
     0
300
3/32" = 1'-0"
140
0.09375
141
12.0
290
     0
  0
SCALE
  5
5E
102
{ACAD_REACTORS
330
47
102
}
330
47
100
AcDbScale
 70
     0
300
1/8" = 1'-0"
140
0.125
141
12.0
290
     0
  0
SCALE
  5
5F
102
{ACAD_REACTORS
330
47
102
}
330
47
100
AcDbScale
 70
     0
300
3/16" = 1'-0"
140
0.1875
141
12.0
290
     0
  0
SCALE
  5
60
102
{ACAD_REACTORS
330
47
102
}
330
47
100
AcDbScale
 70
     0
300
1/4" = 1'-0"
140
0.25
141
12.0
290
     0
  0
SCALE
  5
61
102
{ACAD_REACTORS
330
47
102
}
330
47
100
AcDbScale
 70
     0
300
3/8" = 1'-0"
140
0.375
141
12.0
290
     0
  0
SCALE
  5
62
102
{ACAD_REACTORS
330
47
102
}
330
47
100
AcDbScale
 70
     0
300
1/2" = 1'-0"
140
0.5
141
12.0
290
     0
  0
SCALE
  5
63
102
{ACAD_REACTORS
330
47
102
}
330
47
100
AcDbScale
 70
     0
300
3/4" = 1'-0"
140
0.75
141
12.0
290
     0
  0
SCALE
  5
64
102
{ACAD_REACTORS
330
47
102
}
330
47
100
AcDbScale
 70
     0
300
1" = 1'-0"
140
1.0
141
12.0
290
     0
  0
SCALE
  5
65
102
{ACAD_REACTORS
330
47
102
}
330
47
100
AcDbScale
 70
     0
300
1-1/2" = 1'-0"
140
1.5
141
12.0
290
     0
  0
SCALE
  5
66
102
{ACAD_REACTORS
330
47
102
}
330
47
100
AcDbScale
 70
     0
300
3" = 1'-0"
140
3.0
141
12.0
290
     0
  0
SCALE
  5
67
102
{ACAD_REACTORS
330
47
102
}
330
47
100
AcDbScale
 70
     0
300
6" = 1'-0"
140
6.0
141
12.0
290
     0
  0
SCALE
  5
68
102
{ACAD_REACTORS
330
47
102
}
330
47
100
AcDbScale
 70
     0
300
1'-0" = 1'-0"
140
12.0
141
12.0
290
     0
  0
TABLESTYLE
  5
180
102
{ACAD_REACTORS
330
17F
102
}
102
{ACAD_XDICTIONARY
360
1A42
102
}
330
17F
100
AcDbTableStyle
  3
Standard
 70
     0
 71
     0
 40
1.5
 41
1.5
280
     0
281
     0
  7
Standard
140
4.5
170
     2
 62
     0
 63
   257
283
     0
 90
        4
 91
        0
  1

274
    -2
284
     1
 64
     0
275
    -2
285
     1
 65
     0
276
    -2
286
     1
 66
     0
277
    -2
287
     1
 67
     0
278
    -2
288
     1
 68
     0
279
    -2
289
     1
 69
     0
  7
Standard
140
6.0
170
     5
 62
     0
 63
   257
283
     0
 90
        4
 91
        0
  1

274
    -2
284
     1
 64
     0
275
    -2
285
     1
 65
     0
276
    -2
286
     1
 66
     0
277
    -2
287
     1
 67
     0
278
    -2
288
     1
 68
     0
279
    -2
289
     1
 69
     0
  7
Standard
140
4.5
170
     5
 62
     0
 63
   257
283
     0
 90
        4
 91
        0
  1

274
    -2
284
     1
 64
     0
275
    -2
285
     1
 65
     0
276
    -2
286
     1
 66
     0
277
    -2
287
     1
 67
     0
278
    -2
288
     1
 68
     0
279
    -2
289
     1
 69
     0
  0
VISUALSTYLE
  5
167
102
{ACAD_REACTORS
330
162
102
}
330
162
100
AcDbVisualStyle
  2
2dWireframe
 70
     4
177
     2
291
     0
 71
     0
176
     1
 72
     2
176
     1
 73
     0
176
     1
 90
        0
176
     1
 40
0.6
176
     1
 41
30.0
176
     1
 62
     5
 63
     7
421
 16777215
176
     1
 74
     1
176
     1
 91
        4
176
     1
 64
     7
176
     1
 65
   257
176
     1
 75
     1
176
     1
175
     1
176
     1
 42
1.0
176
     1
 92
        0
176
     1
 66
   257
176
     1
 43
1.0
176
     1
 76
     1
176
     1
 77
     6
176
     1
 78
     2
176
     1
 67
     7
176
     1
 79
     5
176
     1
170
     0
176
     1
171
     0
176
     1
290
     0
176
     1
 93
        1
176
     1
 44
0.0
176
     1
173
     0
176
     1
  0
VISUALSTYLE
  5
16A
102
{ACAD_REACTORS
330
162
102
}
330
162
100
AcDbVisualStyle
  2
Basic
 70
     7
177
     2
291
     1
 71
     1
176
     1
 72
     0
176
     1
 73
     1
176
     1
 90
        0
176
     1
 40
0.6
176
     1
 41
30.0
176
     1
 62
     5
 63
     7
421
 16777215
176
     1
 74
     0
176
     1
 91
        4
176
     1
 64
     7
176
     1
 65
   257
176
     1
 75
     1
176
     1
175
     1
176
     1
 42
1.0
176
     1
 92
        8
176
     1
 66
     7
176
     1
 43
1.0
176
     1
 76
     1
176
     1
 77
     6
176
     1
 78
     2
176
     1
 67
     7
176
     1
 79
     5
176
     1
170
     0
176
     1
171
     0
176
     1
290
     0
176
     1
 93
        1
176
     1
 44
0.0
176
     1
173
     0
176
     1
  0
VISUALSTYLE
  5
16E
102
{ACAD_REACTORS
330
162
102
}
330
162
100
AcDbVisualStyle
  2
Brighten
 70
    12
177
     2
291
     1
 71
     2
176
     1
 72
     2
176
     1
 73
     0
176
     1
 90
        0
176
     1
 40
0.6
176
     1
 41
30.0
176
     1
 62
     5
 63
     7
421
 16777215
176
     1
 74
     1
176
     1
 91
        4
176
     1
 64
     7
176
     1
 65
   257
176
     1
 75
     1
176
     1
175
     1
176
     1
 42
1.0
176
     1
 92
        8
176
     1
 66
     7
176
     1
 43
1.0
176
     1
 76
     1
176
     1
 77
     6
176
     1
 78
     2
176
     1
 67
     7
176
     1
 79
     5
176
     1
170
     0
176
     1
171
     0
176
     1
290
     0
176
     1
 93
        1
176
     1
 44
50.0
176
     1
173
     0
176
     1
  0
VISUALSTYLE
  5
172
102
{ACAD_REACTORS
330
162
102
}
330
162
100
AcDbVisualStyle
  2
ColorChange
 70
    16
177
     2
291
     1
 71
     2
176
     1
 72
     2
176
     1
 73
     3
176
     1
 90
        0
176
     1
 40
0.6
176
     1
 41
30.0
176
     1
 62
     5
 63
     8
421
  8421504
176
     1
 74
     1
176
     1
 91
        4
176
     1
 64
     7
176
     1
 65
   257
176
     1
 75
     1
176
     1
175
     1
176
     1
 42
1.0
176
     1
 92
        8
176
     1
 66
     8
424
  8421504
176
     1
 43
1.0
176
     1
 76
     1
176
     1
 77
     6
176
     1
 78
     2
176
     1
 67
     7
176
     1
 79
     5
176
     1
170
     0
176
     1
171
     0
176
     1
290
     0
176
     1
 93
        1
176
     1
 44
0.0
176
     1
173
     0
176
     1
  0
VISUALSTYLE
  5
16C
102
{ACAD_REACTORS
330
162
102
}
330
162
100
AcDbVisualStyle
  2
Conceptual
 70
     9
177
     2
291
     0
 71
     3
176
     1
 72
     2
176
     1
 73
     0
176
     1
 90
        0
176
     1
 40
0.6
176
     1
 41
30.0
176
     1
 62
     5
 63
     7
421
 16777215
176
     1
 74
     2
176
     1
 91
        2
176
     1
 64
     7
176
     1
 65
   257
176
     1
 75
     1
176
     1
175
     1
176
     1
 42
179.0
176
     1
 92
        8
176
     1
 66
     7
176
     1
 43
1.0
176
     1
 76
     1
176
     1
 77
     6
176
     1
 78
     2
176
     1
 67
     7
176
     1
 79
     3
176
     1
170
     0
176
     1
171
     0
176
     1
290
     0
176
     1
 93
        1
176
     1
 44
0.0
176
     1
173
     0
176
     1
  0
VISUALSTYLE
  5
16D
102
{ACAD_REACTORS
330
162
102
}
330
162
100
AcDbVisualStyle
  2
Dim
 70
    11
177
     2
291
     1
 71
     2
176
     1
 72
     2
176
     1
 73
     0
176
     1
 90
        0
176
     1
 40
0.6
176
     1
 41
30.0
176
     1
 62
     5
 63
     7
421
 16777215
176
     1
 74
     1
176
     1
 91
        4
176
     1
 64
     7
176
     1
 65
   257
176
     1
 75
     1
176
     1
175
     1
176
     1
 42
1.0
176
     1
 92
        8
176
     1
 66
     7
176
     1
 43
1.0
176
     1
 76
     1
176
     1
 77
     6
176
     1
 78
     2
176
     1
 67
     7
176
     1
 79
     5
176
     1
170
     0
176
     1
171
     0
176
     1
290
     0
176
     1
 93
        1
176
     1
 44
-50.0
176
     1
173
     0
176
     1
  0
VISUALSTYLE
  5
175
102
{ACAD_REACTORS
330
162
102
}
330
162
100
AcDbVisualStyle
  2
EdgeColorOff
 70
    22
177
     2
291
     1
 71
     2
176
     0
 72
     2
176
     0
 73
     0
176
     0
 90
        0
176
     0
 40
0.6
176
     0
 41
30.0
176
     0
 62
     5
 63
     7
421
 16777215
176
     0
 74
     1
176
     0
 91
        4
176
     0
 64
     7
176
     0
 65
   257
176
     0
 75
     1
176
     0
175
     1
176
     0
 42
1.0
176
     0
 92
        8
176
     2
 66
     7
176
     0
 43
1.0
176
     0
 76
     1
176
     0
 77
     6
176
     0
 78
     2
176
     0
 67
     7
176
     0
 79
     5
176
     0
170
     0
176
     0
171
     0
176
     0
290
     0
176
     0
 93
        1
176
     0
 44
0.0
176
     0
173
     0
176
     0
  0
VISUALSTYLE
  5
171
102
{ACAD_REACTORS
330
162
102
}
330
162
100
AcDbVisualStyle
  2
Facepattern
 70
    15
177
     2
291
     1
 71
     2
176
     1
 72
     2
176
     1
 73
     0
176
     1
 90
        0
176
     1
 40
0.6
176
     1
 41
30.0
176
     1
 62
     5
 63
     7
421
 16777215
176
     1
 74
     1
176
     1
 91
        4
176
     1
 64
     7
176
     1
 65
   257
176
     1
 75
     1
176
     1
175
     1
176
     1
 42
1.0
176
     1
 92
        8
176
     1
 66
     7
176
     1
 43
1.0
176
     1
 76
     1
176
     1
 77
     6
176
     1
 78
     2
176
     1
 67
     7
176
     1
 79
     5
176
     1
170
     0
176
     1
171
     0
176
     1
290
     0
176
     1
 93
        1
176
     1
 44
0.0
176
     1
173
     0
176
     1
  0
VISUALSTYLE
  5
163
102
{ACAD_REACTORS
330
162
102
}
330
162
100
AcDbVisualStyle
  2
Flat
 70
     0
177
     2
291
     1
 71
     2
176
     1
 72
     1
176
     1
 73
     1
176
     1
 90
        2
176
     1
 40
0.6
176
     1
 41
30.0
176
     1
 62
     5
 63
     7
421
 16777215
176
     1
 74
     0
176
     1
 91
        0
176
     1
 64
     7
176
     1
 65
   257
176
     1
 75
     1
176
     1
175
     1
176
     1
 42
1.0
176
     1
 92
        8
176
     1
 66
     7
176
     1
 43
1.0
176
     1
 76
     1
176
     1
 77
     6
176
     1
 78
     2
176
     1
 67
     7
176
     1
 79
     5
176
     1
170
     0
176
     1
171
     0
176
     1
290
     0
176
     1
 93
       13
176
     1
 44
0.0
176
     1
173
     0
176
     1
  0
VISUALSTYLE
  5
164
102
{ACAD_REACTORS
330
162
102
}
330
162
100
AcDbVisualStyle
  2
FlatWithEdges
 70
     1
177
     2
291
     1
 71
     2
176
     1
 72
     1
176
     1
 73
     1
176
     1
 90
        2
176
     1
 40
0.6
176
     1
 41
30.0
176
     1
 62
     5
 63
     7
421
 16777215
176
     1
 74
     1
176
     1
 91
        0
176
     1
 64
     7
176
     1
 65
   257
176
     1
 75
     1
176
     1
175
     1
176
     1
 42
1.0
176
     1
 92
        0
176
     1
 66
   257
176
     1
 43
1.0
176
     1
 76
     1
176
     1
 77
     6
176
     1
 78
     2
176
     1
 67
     7
176
     1
 79
     5
176
     1
170
     0
176
     1
171
     0
176
     1
290
     0
176
     1
 93
       13
176
     1
 44
0.0
176
     1
173
     0
176
     1
  0
VISUALSTYLE
  5
165
102
{ACAD_REACTORS
330
162
102
}
330
162
100
AcDbVisualStyle
  2
Gouraud
 70
     2
177
     2
291
     1
 71
     2
176
     1
 72
     2
176
     1
 73
     1
176
     1
 90
        2
176
     1
 40
0.6
176
     1
 41
30.0
176
     1
 62
     5
 63
     7
421
 16777215
176
     1
 74
     0
176
     1
 91
        0
176
     1
 64
     7
176
     1
 65
   257
176
     1
 75
     1
176
     1
175
     1
176
     1
 42
1.0
176
     1
 92
        0
176
     1
 66
     7
176
     1
 43
1.0
176
     1
 76
     1
176
     1
 77
     6
176
     1
 78
     2
176
     1
 67
     7
176
     1
 79
     5
176
     1
170
     0
176
     1
171
     0
176
     1
290
     0
176
     1
 93
       13
176
     1
 44
0.0
176
     1
173
     0
176
     1
  0
VISUALSTYLE
  5
166
102
{ACAD_REACTORS
330
162
102
}
330
162
100
AcDbVisualStyle
  2
GouraudWithEdges
 70
     3
177
     2
291
     1
 71
     2
176
     1
 72
     2
176
     1
 73
     1
176
     1
 90
        2
176
     1
 40
0.6
176
     1
 41
30.0
176
     1
 62
     5
 63
     7
421
 16777215
176
     1
 74
     1
176
     1
 91
        0
176
     1
 64
     7
176
     1
 65
   257
176
     1
 75
     1
176
     1
175
     1
176
     1
 42
1.0
176
     1
 92
        0
176
     1
 66
   257
176
     1
 43
1.0
176
     1
 76
     1
176
     1
 77
     6
176
     1
 78
     2
176
     1
 67
     7
176
     1
 79
     5
176
     1
170
     0
176
     1
171
     0
176
     1
290
     0
176
     1
 93
       13
176
     1
 44
0.0
176
     1
173
     0
176
     1
  0
VISUALSTYLE
  5
169
102
{ACAD_REACTORS
330
162
102
}
330
162
100
AcDbVisualStyle
  2
Hidden
 70
     6
177
     2
291
     0
 71
     1
176
     1
 72
     2
176
     1
 73
     2
176
     1
 90
        0
176
     1
 40
0.6
176
     1
 41
30.0
176
     1
 62
     5
 63
     7
421
 16777215
176
     1
 74
     2
176
     1
 91
        2
176
     1
 64
     7
176
     1
 65
   257
176
     1
 75
     2
176
     1
175
     1
176
     1
 42
40.0
176
     1
 92
        0
176
     1
 66
   257
176
     1
 43
1.0
176
     1
 76
     1
176
     1
 77
     6
176
     1
 78
     2
176
     1
 67
     7
176
     1
 79
     3
176
     1
170
     0
176
     1
171
     0
176
     1
290
     0
176
     1
 93
        1
176
     1
 44
0.0
176
     1
173
     0
176
     1
  0
VISUALSTYLE
  5
173
102
{ACAD_REACTORS
330
162
102
}
330
162
100
AcDbVisualStyle
  2
JitterOff
 70
    20
177
     2
291
     1
 71
     2
176
     0
 72
     2
176
     0
 73
     0
176
     0
 90
        0
176
     0
 40
0.6
176
     0
 41
30.0
176
     0
 62
     5
 63
     7
421
 16777215
176
     0
 74
     1
176
     0
 91
        4
176
     0
 64
     7
176
     0
 65
   257
176
     0
 75
     1
176
     0
175
     1
176
     0
 42
1.0
176
     0
 92
       10
176
     2
 66
     7
176
     0
 43
1.0
176
     0
 76
     1
176
     0
 77
     6
176
     0
 78
     2
176
     0
 67
     7
176
     0
 79
     5
176
     0
170
     0
176
     0
171
     0
176
     0
290
     0
176
     0
 93
        1
176
     0
 44
0.0
176
     0
173
     0
176
     0
  0
VISUALSTYLE
  5
170
102
{ACAD_REACTORS
330
162
102
}
330
162
100
AcDbVisualStyle
  2
Linepattern
 70
    14
177
     2
291
     1
 71
     2
176
     1
 72
     2
176
     1
 73
     0
176
     1
 90
        0
176
     1
 40
0.6
176
     1
 41
30.0
176
     1
 62
     5
 63
     7
421
 16777215
176
     1
 74
     1
176
     1
 91
        4
176
     1
 64
     7
176
     1
 65
   257
176
     1
 75
     7
176
     1
175
     7
176
     1
 42
1.0
176
     1
 92
        8
176
     1
 66
     7
176
     1
 43
1.0
176
     1
 76
     1
176
     1
 77
     6
176
     1
 78
     2
176
     1
 67
     7
176
     1
 79
     5
176
     1
170
     0
176
     1
171
     0
176
     1
290
     0
176
     1
 93
        1
176
     1
 44
0.0
176
     1
173
     0
176
     1
  0
VISUALSTYLE
  5
174
102
{ACAD_REACTORS
330
162
102
}
330
162
100
AcDbVisualStyle
  2
OverhangOff
 70
    21
177
     2
291
     1
 71
     2
176
     0
 72
     2
176
     0
 73
     0
176
     0
 90
        0
176
     0
 40
0.6
176
     0
 41
30.0
176
     0
 62
     5
 63
     7
421
 16777215
176
     0
 74
     1
176
     0
 91
        4
176
     0
 64
     7
176
     0
 65
   257
176
     0
 75
     1
176
     0
175
     1
176
     0
 42
1.0
176
     0
 92
        9
176
     2
 66
     7
176
     0
 43
1.0
176
     0
 76
     1
176
     0
 77
     6
176
     0
 78
     2
176
     0
 67
     7
176
     0
 79
     5
176
     0
170
     0
176
     0
171
     0
176
     0
290
     0
176
     0
 93
        1
176
     0
 44
0.0
176
     0
173
     0
176
     0
  0
VISUALSTYLE
  5
16B
102
{ACAD_REACTORS
330
162
102
}
330
162
100
AcDbVisualStyle
  2
Realistic
 70
     8
177
     2
291
     0
 71
     2
176
     1
 72
     3
176
     1
 73
     0
176
     1
 90
        2
176
     1
 40
0.6
176
     1
 41
30.0
176
     1
 62
     5
 63
     7
421
 16777215
176
     1
 74
     0
176
     1
 91
        0
176
     1
 64
     7
176
     1
 65
   257
176
     1
 75
     1
176
     1
175
     1
176
     1
 42
1.0
176
     1
 92
        8
176
     1
 66
   257
176
     1
 43
1.0
176
     1
 76
     1
176
     1
 77
     6
176
     1
 78
     2
176
     1
 67
     7
176
     1
 79
     3
176
     1
170
     0
176
     1
171
     0
176
     1
290
     0
176
     1
 93
       13
176
     1
 44
0.0
176
     1
173
     0
176
     1
  0
VISUALSTYLE
  5
17A
102
{ACAD_REACTORS
330
162
102
}
330
162
100
AcDbVisualStyle
  2
Shaded
 70
    27
177
     2
291
     0
 71
     2
176
     1
 72
     2
176
     1
 73
     1
176
     1
 90
        2
176
     1
 40
0.6
176
     1
 41
30.0
176
     1
 62
     5
 63
     7
421
 16777215
176
     1
 74
     0
176
     1
 91
        4
176
     1
 64
     7
176
     1
 65
   257
176
     1
 75
     1
176
     1
175
     1
176
     1
 42
1.0
176
     1
 92
        8
176
     1
 66
   257
176
     1
 43
1.0
176
     1
 76
     1
176
     1
 77
     6
176
     1
 78
     2
176
     1
 67
     8
425
  7895160
176
     1
 79
     3
176
     1
170
     0
176
     1
171
     0
176
     1
290
     0
176
     1
 93
        5
176
     1
 44
0.0
176
     1
173
     0
176
     1
  0
VISUALSTYLE
  5
179
102
{ACAD_REACTORS
330
162
102
}
330
162
100
AcDbVisualStyle
  2
Shaded with edges
 70
    26
177
     2
291
     0
 71
     2
176
     1
 72
     2
176
     1
 73
     1
176
     1
 90
        2
176
     1
 40
0.6
176
     1
 41
30.0
176
     1
 62
     5
 63
     7
421
 16777215
176
     1
 74
     1
176
     1
 91
       10
176
     1
 64
     7
176
     1
 65
   257
176
     1
 75
     2
176
     1
175
     1
176
     1
 42
1.0
176
     1
 92
        8
176
     1
 66
   257
176
     1
 43
1.0
176
     1
 76
     1
176
     1
 77
     6
176
     1
 78
     2
176
     1
 67
     7
176
     1
 79
     3
176
     1
170
     0
176
     1
171
     0
176
     1
290
     0
176
     1
 93
        5
176
     1
 44
0.0
176
     1
173
     0
176
     1
  0
VISUALSTYLE
  5
176
102
{ACAD_REACTORS
330
162
102
}
330
162
100
AcDbVisualStyle
  2
Shades of Gray
 70
    23
177
     2
291
     0
 71
     2
176
     1
 72
     2
176
     1
 73
     3
176
     1
 90
        0
176
     1
 40
0.6
176
     1
 41
30.0
176
     1
 62
     5
 63
     7
421
 16777215
176
     1
 74
     2
176
     1
 91
        2
176
     1
 64
     7
176
     1
 65
     7
176
     1
 75
     1
176
     1
175
     1
176
     1
 42
40.0
176
     1
 92
        8
176
     1
 66
     7
176
     1
 43
1.0
176
     1
 76
     1
176
     1
 77
     6
176
     1
 78
     2
176
     1
 67
     7
176
     1
 79
     3
176
     1
170
     0
176
     1
171
     0
176
     1
290
     0
176
     1
 93
        1
176
     1
 44
0.0
176
     1
173
     0
176
     1
  0
VISUALSTYLE
  5
177
102
{ACAD_REACTORS
330
162
102
}
330
162
100
AcDbVisualStyle
  2
Sketchy
 70
    24
177
     2
291
     0
 71
     1
176
     1
 72
     2
176
     1
 73
     2
176
     1
 90
        0
176
     1
 40
0.6
176
     1
 41
30.0
176
     1
 62
     5
 63
     7
421
 16777215
176
     1
 74
     2
176
     1
 91
        2
176
     1
 64
     7
176
     1
 65
     7
176
     1
 75
     1
176
     1
175
     1
176
     1
 42
40.0
176
     1
 92
       11
176
     1
 66
     7
176
     1
 43
1.0
176
     1
 76
     1
176
     1
 77
     6
176
     1
 78
     2
176
     1
 67
     7
176
     1
 79
     6
176
     1
170
     0
176
     1
171
     0
176
     1
290
     0
176
     1
 93
        1
176
     1
 44
0.0
176
     1
173
     0
176
     1
  0
VISUALSTYLE
  5
16F
102
{ACAD_REACTORS
330
162
102
}
330
162
100
AcDbVisualStyle
  2
Thicken
 70
    13
177
     2
291
     1
 71
     2
176
     1
 72
     2
176
     1
 73
     0
176
     1
 90
        0
176
     1
 40
0.6
176
     1
 41
30.0
176
     1
 62
     5
 63
     7
421
 16777215
176
     1
 74
     1
176
     1
 91
        4
176
     1
 64
     7
176
     1
 65
   257
176
     1
 75
     1
176
     1
175
     1
176
     1
 42
1.0
176
     1
 92
       12
176
     1
 66
     7
176
     1
 43
1.0
176
     1
 76
     1
176
     1
 77
     6
176
     1
 78
     2
176
     1
 67
     7
176
     1
 79
     5
176
     1
170
     0
176
     1
171
     0
176
     1
290
     0
176
     1
 93
        1
176
     1
 44
0.0
176
     1
173
     0
176
     1
  0
VISUALSTYLE
  5
168
102
{ACAD_REACTORS
330
162
102
}
330
162
100
AcDbVisualStyle
  2
Wireframe
 70
     5
177
     2
291
     0
 71
     0
176
     1
 72
     2
176
     1
 73
     0
176
     1
 90
        0
176
     1
 40
0.6
176
     1
 41
30.0
176
     1
 62
     5
 63
     7
421
 16777215
176
     1
 74
     1
176
     1
 91
        4
176
     1
 64
     7
176
     1
 65
   257
176
     1
 75
     1
176
     1
175
     1
176
     1
 42
1.0
176
     1
 92
        0
176
     1
 66
   257
176
     1
 43
1.0
176
     1
 76
     1
176
     1
 77
     6
176
     1
 78
     2
176
     1
 67
     7
176
     1
 79
     3
176
     1
170
     0
176
     1
171
     0
176
     1
290
     0
176
     1
 93
        1
176
     1
 44
0.0
176
     1
173
     0
176
     1
  0
VISUALSTYLE
  5
178
102
{ACAD_REACTORS
330
162
102
}
330
162
100
AcDbVisualStyle
  2
X-Ray
 70
    25
177
     2
291
     0
 71
     2
176
     1
 72
     2
176
     1
 73
     1
176
     1
 90
        1
176
     1
 40
0.5
176
     1
 41
30.0
176
     1
 62
     5
 63
     7
421
 16777215
176
     1
 74
     1
176
     1
 91
        0
176
     1
 64
     7
176
     1
 65
   257
176
     1
 75
     1
176
     1
175
     1
176
     1
 42
1.0
176
     1
 92
        8
176
     1
 66
     7
176
     1
 43
1.0
176
     1
 76
     1
176
     1
 77
     6
176
     1
 78
     2
176
     1
 67
     7
176
     1
 79
     3
176
     1
170
     0
176
     1
171
     0
176
     1
290
     0
176
     1
 93
       13
176
     1
 44
0.0
176
     1
173
     0
176
     1
  0
DICTIONARYVAR
  5
6BB
102
{ACAD_REACTORS
330
6BA
102
}
330
6BA
100
DictionaryVariables
280
     0
  1
1:1
  0
DICTIONARYVAR
  5
6BC
102
{ACAD_REACTORS
330
6BA
102
}
330
6BA
100
DictionaryVariables
280
     0
  1
Standard
  0
DICTIONARYVAR
  5
6BD
102
{ACAD_REACTORS
330
6BA
102
}
330
6BA
100
DictionaryVariables
280
     0
  1
0
  0
DICTIONARY
  5
1A42
330
180
100
AcDbDictionary
280
     1
281
     1
  3
ACAD_ROUNDTRIP_2008_TABLESTYLE_CELLSTYLEMAP
360
1A43
  0
CELLSTYLEMAP
  5
1A43
102
{ACAD_REACTORS
330
1A42
102
}
330
1A42
100
AcDbCellStyleMap
 90
        3
300
CELLSTYLE
  1
TABLEFORMAT_BEGIN
 90
        5
170
     1
 91
        0
 92
        0
 62
   257
 93
        1
300
CONTENTFORMAT
  1
CONTENTFORMAT_BEGIN
 90
        0
 91
        0
 92
        4
 93
        0
300

 40
0.0
140
1.0
 94
        5
 62
     0
340
11
144
6.0
309
CONTENTFORMAT_END
171
     1
301
MARGIN
  1
CELLMARGIN_BEGIN
 40
1.5
 40
1.5
 40
1.5
 40
1.5
 40
1.5
 40
1.5
309
CELLMARGIN_END
 94
        6
 95
        1
302
GRIDFORMAT
  1
GRIDFORMAT_BEGIN
 90
        0
 91
        1
 62
     0
 92
       -2
340
14
 93
        0
 40
0.045
309
GRIDFORMAT_END
 95
        2
302
GRIDFORMAT
  1
GRIDFORMAT_BEGIN
 90
        0
 91
        1
 62
     0
 92
       -2
340
14
 93
        0
 40
0.045
309
GRIDFORMAT_END
 95
        4
302
GRIDFORMAT
  1
GRIDFORMAT_BEGIN
 90
        0
 91
        1
 62
     0
 92
       -2
340
14
 93
        0
 40
0.045
309
GRIDFORMAT_END
 95
        8
302
GRIDFORMAT
  1
GRIDFORMAT_BEGIN
 90
        0
 91
        1
 62
     0
 92
       -2
340
14
 93
        0
 40
0.045
309
GRIDFORMAT_END
 95
       16
302
GRIDFORMAT
  1
GRIDFORMAT_BEGIN
 90
        0
 91
        1
 62
     0
 92
       -2
340
14
 93
        0
 40
0.045
309
GRIDFORMAT_END
 95
       32
302
GRIDFORMAT
  1
GRIDFORMAT_BEGIN
 90
        0
 91
        1
 62
     0
 92
       -2
340
14
 93
        0
 40
0.045
309
GRIDFORMAT_END
309
TABLEFORMAT_END
  1
CELLSTYLE_BEGIN
 90
        1
 91
        1
300
_TITLE
309
CELLSTYLE_END
300
CELLSTYLE
  1
TABLEFORMAT_BEGIN
 90
        5
170
     1
 91
        0
 92
        0
 62
   257
 93
        1
300
CONTENTFORMAT
  1
CONTENTFORMAT_BEGIN
 90
        0
 91
        0
 92
        4
 93
        0
300

 40
0.0
140
1.0
 94
        5
 62
     0
340
11
144
4.5
309
CONTENTFORMAT_END
171
     1
301
MARGIN
  1
CELLMARGIN_BEGIN
 40
1.5
 40
1.5
 40
1.5
 40
1.5
 40
1.5
 40
1.5
309
CELLMARGIN_END
 94
        6
 95
        1
302
GRIDFORMAT
  1
GRIDFORMAT_BEGIN
 90
        0
 91
        1
 62
     0
 92
       -2
340
14
 93
        0
 40
0.045
309
GRIDFORMAT_END
 95
        2
302
GRIDFORMAT
  1
GRIDFORMAT_BEGIN
 90
        0
 91
        1
 62
     0
 92
       -2
340
14
 93
        0
 40
0.045
309
GRIDFORMAT_END
 95
        4
302
GRIDFORMAT
  1
GRIDFORMAT_BEGIN
 90
        0
 91
        1
 62
     0
 92
       -2
340
14
 93
        0
 40
0.045
309
GRIDFORMAT_END
 95
        8
302
GRIDFORMAT
  1
GRIDFORMAT_BEGIN
 90
        0
 91
        1
 62
     0
 92
       -2
340
14
 93
        0
 40
0.045
309
GRIDFORMAT_END
 95
       16
302
GRIDFORMAT
  1
GRIDFORMAT_BEGIN
 90
        0
 91
        1
 62
     0
 92
       -2
340
14
 93
        0
 40
0.045
309
GRIDFORMAT_END
 95
       32
302
GRIDFORMAT
  1
GRIDFORMAT_BEGIN
 90
        0
 91
        1
 62
     0
 92
       -2
340
14
 93
        0
 40
0.045
309
GRIDFORMAT_END
309
TABLEFORMAT_END
  1
CELLSTYLE_BEGIN
 90
        2
 91
        1
300
_HEADER
309
CELLSTYLE_END
300
CELLSTYLE
  1
TABLEFORMAT_BEGIN
 90
        5
170
     1
 91
        0
 92
        0
 62
   257
 93
        1
300
CONTENTFORMAT
  1
CONTENTFORMAT_BEGIN
 90
        0
 91
        0
 92
        4
 93
        0
300

 40
0.0
140
1.0
 94
        2
 62
     0
340
11
144
4.5
309
CONTENTFORMAT_END
171
     1
301
MARGIN
  1
CELLMARGIN_BEGIN
 40
1.5
 40
1.5
 40
1.5
 40
1.5
 40
1.5
 40
1.5
309
CELLMARGIN_END
 94
        6
 95
        1
302
GRIDFORMAT
  1
GRIDFORMAT_BEGIN
 90
        0
 91
        1
 62
     0
 92
       -2
340
14
 93
        0
 40
0.045
309
GRIDFORMAT_END
 95
        2
302
GRIDFORMAT
  1
GRIDFORMAT_BEGIN
 90
        0
 91
        1
 62
     0
 92
       -2
340
14
 93
        0
 40
0.045
309
GRIDFORMAT_END
 95
        4
302
GRIDFORMAT
  1
GRIDFORMAT_BEGIN
 90
        0
 91
        1
 62
     0
 92
       -2
340
14
 93
        0
 40
0.045
309
GRIDFORMAT_END
 95
        8
302
GRIDFORMAT
  1
GRIDFORMAT_BEGIN
 90
        0
 91
        1
 62
     0
 92
       -2
340
14
 93
        0
 40
0.045
309
GRIDFORMAT_END
 95
       16
302
GRIDFORMAT
  1
GRIDFORMAT_BEGIN
 90
        0
 91
        1
 62
     0
 92
       -2
340
14
 93
        0
 40
0.045
309
GRIDFORMAT_END
 95
       32
302
GRIDFORMAT
  1
GRIDFORMAT_BEGIN
 90
        0
 91
        1
 62
     0
 92
       -2
340
14
 93
        0
 40
0.045
309
GRIDFORMAT_END
309
TABLEFORMAT_END
  1
CELLSTYLE_BEGIN
 90
        3
 91
        2
300
_DATA
309
CELLSTYLE_END
  0
ENDSEC
  0
EOF
